999
DXF file: KVV987252-XD-01-0_FLYBAR-2D.dxf
999
Pro/ENGINEER 2019471 by Parametric Technology Corporation
  0
SECTION
  2
HEADER
  9
$ACADVER
  1
AC1021
  9
$DWGCODEPAGE
  3
ANSI_1250
  9
$EXTMAX
 10
3500.0
 20
2000.0
 30
0.0
  9
$EXTMIN
 10
0.0
 20
-0.0
 30
0.0
  9
$LIMMIN
 10
0.0
 20
-0.0
  9
$LIMMAX
 10
3500.0
 20
2000.0
  9
$VIEWCTR
 10
1750.0
 20
1000.0
  9
$VIEWSIZE
 40
2000.0
  9
$CLAYER
  8
0
  9
$LTSCALE
 40
192.5
  9
$CELTYPE
  6
BYLAYER
  9
$DIMSCALE
 40
1.0
  9
$DIMASZ
 40
2.2
  9
$DIMEXO
 40
0.5
  9
$DIMDLI
 40
133.0
  9
$DIMEXE
 40
1.0
  9
$DIMCEN
 40
31.5
  9
$DIMLFAC
 40
33.3333333333
  9
$DIMBLK
  1
_FILLED
  9
$DIMALT
 70
0
  9
$DIMALTF
 40
0.0393700787
  9
$DIMTXT
 40
3.0
  9
$DIMTOL
 70
1
  9
$DIMLIM
 70
0
  9
$DIMTFAC
 40
1.0
  9
$DIMTP
 40
0.0001
  9
$DIMTM
 40
0.0001
  9
$DIMGAP
 40
0.625
  9
$DIMDSEP
 70
46
  9
$AUNITS
 70
0
  9
$PDMODE
 70
3
  9
$PDSIZE
 40
0.3125
  9
$HANDSEED
  5
79F
  9
$TILEMODE
 70
1
  9
$MEASUREMENT
 70
1
  9
$INSUNITS
 70
4
  0
ENDSEC
  0
SECTION
  2
CLASSES
  0
CLASS
  1
ACDBDICTIONARYWDFLT
  2
AcDbDictionaryWithDefault
  3
AutoCAD 2000
 90
0
 91
1
280
0
281
0
  0
CLASS
  1
ACDBPLACEHOLDER
  2
AcDbPlaceHolder
  3
AutoCAD 2000
 90
0
 91
1
280
0
281
0
  0
CLASS
  1
LAYOUT
  2
AcDbLayout
  3
AutoCAD 2000
 90
0
 91
0
280
0
281
0
  0
ENDSEC
  0
SECTION
  2
TABLES
  0
TABLE
  2
VPORT
  5
8
100
AcDbSymbolTable
 70
2
  0
VPORT
  5
1F4
100
AcDbSymbolTableRecord
100
AcDbViewportTableRecord
  2
*ACTIVE
 70
0
 10
0.0
 20
0.0
 11
1.0
 21
1.0
 12
1750.0
 22
1000.0
 13
0.0
 23
0.0
 14
1.0
 24
1.0
 15
0.0
 25
0.0
 16
0.0
 26
0.0
 36
1.0
 17
0.0
 27
0.0
 37
0.0
 40
2000.0
 41
1.75
 42
50.0
 43
0.0
 44
0.0
 50
0.0
 51
0.0
 71
0
 72
100
 73
1
 74
1
 75
0
 76
0
 77
0
 78
0
  0
ENDTAB
  0
TABLE
  2
LTYPE
  5
5
100
AcDbSymbolTable
 70
6
  0
LTYPE
  5
14
100
AcDbSymbolTableRecord
100
AcDbLinetypeTableRecord
  2
BYBLOCK
 70
0
  3

 72
65
 73
0
 40
0.0
  0
LTYPE
  5
15
100
AcDbSymbolTableRecord
100
AcDbLinetypeTableRecord
  2
BYLAYER
 70
0
  3

 72
65
 73
0
 40
0.0
  0
LTYPE
  5
16
100
AcDbSymbolTableRecord
100
AcDbLinetypeTableRecord
  2
CONTINUOUS
 70
64
  3
Solid line
 72
65
 73
0
 40
0.0
  0
LTYPE
  5
1F5
100
AcDbSymbolTableRecord
100
AcDbLinetypeTableRecord
  2
CENTER
 70
64
  3
____ _ ____ _ ____ _ ____ _ ____ _ ____ _ ____
 72
65
 73
4
 40
0.6
 49
0.375
 74
0
 49
-0.075
 74
0
 49
0.075
 74
0
 49
-0.075
 74
0
  0
LTYPE
  5
1F6
100
AcDbSymbolTableRecord
100
AcDbLinetypeTableRecord
  2
HIDDEN
 70
64
  3
- - - - - - - - - - - - - - - - - - - -
 72
65
 73
2
 40
0.2
 49
0.1
 74
0
 49
-0.1
 74
0
  0
LTYPE
  5
1F7
100
AcDbSymbolTableRecord
100
AcDbLinetypeTableRecord
  2
PHANTOM
 70
64
  3
_____ _ _ _____ _ _ _____ _ _ _____
 72
65
 73
6
 40
0.8
 49
0.45
 74
0
 49
-0.05
 74
0
 49
0.1
 74
0
 49
-0.05
 74
0
 49
0.1
 74
0
 49
-0.05
 74
0
  0
LTYPE
  5
1F8
100
AcDbSymbolTableRecord
100
AcDbLinetypeTableRecord
  2
DOT
 70
64
  3
. . . . . . . . . . . . . . . . . . . .
 72
65
 73
2
 40
0.2
 49
0.1
 74
0
 49
-0.1
 74
0
  0
LTYPE
  5
1F9
100
AcDbSymbolTableRecord
100
AcDbLinetypeTableRecord
  2
DASHED
 70
64
  3
- - - - - - - - - - - - - - - - - - - -
 72
65
 73
2
 40
0.2
 49
0.1
 74
0
 49
-0.1
 74
0
  0
ENDTAB
  0
TABLE
  2
LAYER
  5
2
100
AcDbSymbolTable
 70
36
  0
LAYER
  5
10
100
AcDbSymbolTableRecord
100
AcDbLayerTableRecord
  2
0
 70
0
 62
7
  6
CONTINUOUS
370
-3
390
F
  0
LAYER
  5
1FA
100
AcDbSymbolTableRecord
100
AcDbLayerTableRecord
  2
DEFAULT_1
 70
0
 62
7
  6
CENTER
370
-3
390
F
  0
LAYER
  5
1FB
100
AcDbSymbolTableRecord
100
AcDbLayerTableRecord
  2
DEFAULT_2
 70
0
 62
8
  6
HIDDEN
370
-3
390
F
  0
LAYER
  5
1FC
100
AcDbSymbolTableRecord
100
AcDbLayerTableRecord
  2
DEFAULT_3
 70
0
 62
7
  6
PHANTOM
370
-3
390
F
  0
LAYER
  5
1FD
100
AcDbSymbolTableRecord
100
AcDbLayerTableRecord
  2
000-CHLADICE
 70
0
 62
7
  6
CONTINUOUS
370
-3
390
F
  0
LAYER
  5
1FE
100
AcDbSymbolTableRecord
100
AcDbLayerTableRecord
  2
000-DPS
 70
0
 62
7
  6
CONTINUOUS
370
-3
390
F
  0
LAYER
  5
1FF
100
AcDbSymbolTableRecord
100
AcDbLayerTableRecord
  2
000-KABELY
 70
0
 62
7
  6
CONTINUOUS
370
-3
390
F
  0
LAYER
  5
200
100
AcDbSymbolTableRecord
100
AcDbLayerTableRecord
  2
000-PART
 70
0
 62
7
  6
CONTINUOUS
370
-3
390
F
  0
LAYER
  5
201
100
AcDbSymbolTableRecord
100
AcDbLayerTableRecord
  2
000-PERA
 70
0
 62
7
  6
CONTINUOUS
370
-3
390
F
  0
LAYER
  5
202
100
AcDbSymbolTableRecord
100
AcDbLayerTableRecord
  2
000-SPOJ_MAT
 70
0
 62
7
  6
CONTINUOUS
370
-3
390
F
  0
LAYER
  5
203
100
AcDbSymbolTableRecord
100
AcDbLayerTableRecord
  2
AX
 70
0
 62
7
  6
CONTINUOUS
370
-3
390
F
  0
LAYER
  5
204
100
AcDbSymbolTableRecord
100
AcDbLayerTableRecord
  2
AXIS
 70
0
 62
7
  6
CONTINUOUS
370
-3
390
F
  0
LAYER
  5
205
100
AcDbSymbolTableRecord
100
AcDbLayerTableRecord
  2
COLOR37
 70
0
 62
7
  6
CONTINUOUS
370
-3
390
F
  0
LAYER
  5
206
100
AcDbSymbolTableRecord
100
AcDbLayerTableRecord
  2
CURVE
 70
0
 62
7
  6
CONTINUOUS
370
-3
390
F
  0
LAYER
  5
207
100
AcDbSymbolTableRecord
100
AcDbLayerTableRecord
  2
DATUM_CSYS
 70
0
 62
7
  6
CONTINUOUS
370
-3
390
F
  0
LAYER
  5
208
100
AcDbSymbolTableRecord
100
AcDbLayerTableRecord
  2
DATUM_PLANE
 70
0
 62
7
  6
CONTINUOUS
370
-3
390
F
  0
LAYER
  5
209
100
AcDbSymbolTableRecord
100
AcDbLayerTableRecord
  2
DATUM_POINT
 70
0
 62
7
  6
CONTINUOUS
370
-3
390
F
  0
LAYER
  5
20A
100
AcDbSymbolTableRecord
100
AcDbLayerTableRecord
  2
P-AX
 70
0
 62
7
  6
CONTINUOUS
370
-3
390
F
  0
LAYER
  5
20B
100
AcDbSymbolTableRecord
100
AcDbLayerTableRecord
  2
P-CRV
 70
0
 62
7
  6
CONTINUOUS
370
-3
390
F
  0
LAYER
  5
20C
100
AcDbSymbolTableRecord
100
AcDbLayerTableRecord
  2
P-DTM
 70
0
 62
7
  6
CONTINUOUS
370
-3
390
F
  0
LAYER
  5
20D
100
AcDbSymbolTableRecord
100
AcDbLayerTableRecord
  2
P-GEOM_RIF
 70
0
 62
7
  6
CONTINUOUS
370
-3
390
F
  0
LAYER
  5
20E
100
AcDbSymbolTableRecord
100
AcDbLayerTableRecord
  2
P-PNT
 70
0
 62
7
  6
CONTINUOUS
370
-3
390
F
  0
LAYER
  5
20F
100
AcDbSymbolTableRecord
100
AcDbLayerTableRecord
  2
P-SDTM
 70
0
 62
7
  6
CONTINUOUS
370
-3
390
F
  0
LAYER
  5
210
100
AcDbSymbolTableRecord
100
AcDbLayerTableRecord
  2
P-SHIT
 70
0
 62
7
  6
CONTINUOUS
370
-3
390
F
  0
LAYER
  5
211
100
AcDbSymbolTableRecord
100
AcDbLayerTableRecord
  2
P-SURF
 70
0
 62
7
  6
CONTINUOUS
370
-3
390
F
  0
LAYER
  5
212
100
AcDbSymbolTableRecord
100
AcDbLayerTableRecord
  2
QUILT
 70
0
 62
7
  6
CONTINUOUS
370
-3
390
F
  0
LAYER
  5
213
100
AcDbSymbolTableRecord
100
AcDbLayerTableRecord
  2
ROUND
 70
0
 62
7
  6
CONTINUOUS
370
-3
390
F
  0
LAYER
  5
214
100
AcDbSymbolTableRecord
100
AcDbLayerTableRecord
  2
SURFACE
 70
0
 62
7
  6
CONTINUOUS
370
-3
390
F
  0
ENDTAB
  0
TABLE
  2
STYLE
  5
3
100
AcDbSymbolTable
 70
1
  0
STYLE
  5
11
100
AcDbSymbolTableRecord
100
AcDbTextStyleTableRecord
  2
STANDARD
 70
0
 40
0.0
 41
0.8
 50
0.0
 71
0
 42
0.2
  3
txt
  4

  0
STYLE
  5
215
100
AcDbSymbolTableRecord
100
AcDbTextStyleTableRecord
  2
TEXTSTYLE_1
 70
0
 40
0.0
 41
0.8
 50
0.0
 71
0
 42
0.2
  3
gdt
  4

  0
ENDTAB
  0
TABLE
  2
VIEW
  5
6
100
AcDbSymbolTable
 70
0
  0
ENDTAB
  0
TABLE
  2
UCS
  5
7
100
AcDbSymbolTable
 70
0
  0
ENDTAB
  0
TABLE
  2
APPID
  5
9
100
AcDbSymbolTable
 70
1
  0
APPID
  5
216
100
AcDbSymbolTableRecord
100
AcDbRegAppTableRecord
  2
ACAD
 70
0
  0
ENDTAB
  0
TABLE
  2
BLOCK_RECORD
  5
1
100
AcDbSymbolTable
 70
0
  0
BLOCK_RECORD
  5
217
100
AcDbSymbolTableRecord
100
AcDbBlockTableRecord
  2
*Model_Space
  0
BLOCK_RECORD
  5
218
100
AcDbSymbolTableRecord
100
AcDbBlockTableRecord
  2
*Paper_Space
  0
BLOCK_RECORD
  5
219
100
AcDbSymbolTableRecord
100
AcDbBlockTableRecord
  2
_FILLED
  0
ENDTAB
  0
TABLE
  2
DIMSTYLE
  5
A
100
AcDbSymbolTable
 70
1
100
AcDbDimStyleTable
 71
0
  0
DIMSTYLE
105
21A
100
AcDbSymbolTableRecord
100
AcDbDimStyleTableRecord
  2
STANDARD
 70
0
  3

  4

 40
1.0
 41
2.2
 42
0.5
 43
0.38
 44
1.0
 45
0.0
 46
0.0
 47
0.0001
 48
0.0001
140
3.0
141
0.09
142
0.0
143
25.4
144
1.0
145
0.0
146
1.0
147
0.625
 71
1
 72
0
 73
0
 74
0
 75
0
 76
0
 77
1
 78
8
 79
2
170
0
171
3
172
0
173
0
174
0
175
0
176
0
177
0
178
0
270
2
179
4
271
4
272
4
273
2
274
2
275
0
280
0
281
0
282
0
283
1
284
8
285
0
286
0
287
3
288
0
340
11
278
46
341
219
342
219
343
219
344
219
  0
ENDTAB
  0
ENDSEC
  0
SECTION
  2
BLOCKS
  0
BLOCK
  5
20
100
AcDbEntity
  8
0
100
AcDbBlockBegin
  2
*Model_Space
 70
0
 10
0.0
 20
0.0
 30
0.0
  3
*Model_Space
  1

  0
ENDBLK
  5
21
100
AcDbEntity
  8
0
100
AcDbBlockEnd
  0
BLOCK
  5
1C
100
AcDbEntity
  8
0
100
AcDbBlockBegin
  2
*Paper_Space
 70
0
 10
0.0
 20
0.0
 30
0.0
  3
*Paper_Space
  1

  0
ENDBLK
  5
1D
100
AcDbEntity
  8
0
100
AcDbBlockEnd
  0
BLOCK
  5
21B
100
AcDbEntity
  8
0
100
AcDbBlockBegin
  2
_FILLED
 70
64
 10
0.0
 20
0.0
  3
_FILLED
  1

  0
SOLID
  5
21C
100
AcDbEntity
  8
0
  6
BYBLOCK
 62
0
100
AcDbTrace
 10
0.0
 20
0.0
 11
-1.0
 21
0.25
 12
-1.0
 22
-0.25
 13
-1.0
 23
-0.25
  0
ENDBLK
  5
21D
100
AcDbEntity
  8
0
  6
BYBLOCK
 62
0
100
AcDbBlockEnd
  0
ENDSEC
  0
SECTION
  2
ENTITIES
  0
MTEXT
  5
21E
100
AcDbEntity
  8
0
100
AcDbMText
 62
2
  6
CONTINUOUS
  7
STANDARD
 71
3
 72
1
 10
1428.2974376838
 20
724.3635535802
 30
0.0
 11
1.0
 21
0.0
 31
0.0
 73
2
 44
0.9
  1
1:1
 40
3.0
 41
8.7323420074
  0
LINE
  5
21F
100
AcDbEntity
  8
0
100
AcDbLine
 62
7
  6
CONTINUOUS
 10
923.3828619588
 20
1119.4680556763
 11
920.3828619588
 21
1116.4680556763
  0
LINE
  5
220
100
AcDbEntity
  8
0
100
AcDbLine
 62
7
  6
CONTINUOUS
 10
1340.1592748662
 20
1038.1934805357
 11
1320.9993872646
 21
1031.9680556763
  0
LINE
  5
221
100
AcDbEntity
  8
0
100
AcDbLine
 62
6
  6
CONTINUOUS
 10
1265.5484682332
 20
1137.0680556763
 11
1265.2647029728
 21
1136.835325567
  0
LWPOLYLINE
  5
222
100
AcDbEntity
  8
0
100
AcDbPolyline
 62
6
  6
CONTINUOUS
 90
4
 70
0
 10
1264.8828619588
 20
1136.5318916685
 10
1264.9261946178
 20
1136.5670868225
 10
1265.0550292101
 20
1136.6675901613
 10
1265.2647029728
 20
1136.835325567
  0
LWPOLYLINE
  5
223
100
AcDbEntity
  8
0
100
AcDbPolyline
 62
6
  6
CONTINUOUS
 90
3
 70
0
 10
1265.0561612785
 20
1136.6682671495
 10
1264.9271658529
 20
1136.5665163148
 10
1264.8828619588
 20
1136.5318916685
  0
LINE
  5
224
100
AcDbEntity
  8
0
100
AcDbLine
 62
6
  6
CONTINUOUS
 10
1271.6828619588
 20
1139.9580556763
 11
1271.8928619588
 21
1140.1680556763
  0
LINE
  5
225
100
AcDbEntity
  8
0
100
AcDbLine
 62
6
  6
CONTINUOUS
 10
1264.3828619588
 20
1136.0680556763
 11
1264.8828619588
 21
1136.5318345465
  0
LWPOLYLINE
  5
226
100
AcDbEntity
  8
0
100
AcDbPolyline
 62
7
  6
CONTINUOUS
 90
7
 70
0
 10
1302.667609122
 20
1168.4757923725
 10
1299.5681130263
 20
1165.8728091926
 10
1297.4737269627
 20
1164.1154335903
 10
1295.2225144996
 20
1162.2247140859
 10
1292.9499320536
 20
1160.3153000597
 10
1290.7573870762
 20
1158.4742815799
 10
1288.6534822016
 20
1156.7076784324
  0
LWPOLYLINE
  5
227
100
AcDbEntity
  8
0
100
AcDbPolyline
 62
7
  6
CONTINUOUS
 90
6
 70
0
 10
1273.6963868938
 20
1144.1483404211
 10
1272.1065789744
 20
1142.8131857833
 10
1270.6143557442
 20
1141.5601484985
 10
1269.2358718979
 20
1140.4050634392
 10
1268.03145043
 20
1139.389738339
 10
1267.6328619588
 20
1139.0549279499
  0
LWPOLYLINE
  5
228
100
AcDbEntity
  8
0
100
AcDbPolyline
 62
7
  6
CONTINUOUS
 90
5
 70
0
 10
1277.2947782104
 20
1143.2520006996
 10
1280.8379768282
 20
1146.2276242143
 10
1282.7010802519
 20
1147.7918127284
 10
1284.6114290431
 20
1149.3955898164
 10
1286.5618513627
 20
1151.0335348504
  0
LWPOLYLINE
  5
229
100
AcDbEntity
  8
0
100
AcDbPolyline
 62
7
  6
CONTINUOUS
 90
10
 70
0
 10
1286.5618513627
 20
1151.0335348504
 10
1290.5825789414
 20
1154.4102168551
 10
1292.6864189288
 20
1156.1768886885
 10
1294.8788824459
 20
1158.0179948135
 10
1297.1525546455
 20
1159.9261050187
 10
1299.4041221405
 20
1161.8164036163
 10
1301.4972365572
 20
1163.575303658
 10
1303.3151064186
 20
1165.1018439558
 10
1304.8152139886
 20
1166.3610575242
 10
1305.746581481
 20
1167.1436619806
  0
LINE
  5
22A
100
AcDbEntity
  8
0
100
AcDbLine
 62
7
  6
CONTINUOUS
 10
1282.6817246697
 20
1151.6937563386
 11
1273.6963868938
 21
1144.1483404211
  0
LINE
  5
22B
100
AcDbEntity
  8
0
100
AcDbLine
 62
7
  6
CONTINUOUS
 10
1288.6534822016
 20
1156.7076784324
 11
1282.6817246697
 21
1151.6937563386
  0
LINE
  5
22C
100
AcDbEntity
  8
0
100
AcDbLine
 62
7
  6
CONTINUOUS
 10
1273.6217964518
 20
1140.1680556763
 11
1277.2947782104
 21
1143.2520006996
  0
LWPOLYLINE
  5
22D
100
AcDbEntity
  8
0
100
AcDbPolyline
 62
7
  6
CONTINUOUS
 90
3
 70
0
 10
1269.928202639
 20
1137.0680556763
 10
1271.167463263
 20
1138.1046999637
 10
1271.6828619588
 20
1138.5383973117
  0
LINE
  5
22E
100
AcDbEntity
  8
000-SPOJ_MAT
100
AcDbLine
 62
7
  6
CONTINUOUS
 10
1287.3828619588
 20
1134.3730809295
 11
1287.8778367056
 21
1134.8680556763
  0
LINE
  5
22F
100
AcDbEntity
  8
000-SPOJ_MAT
100
AcDbLine
 62
7
  6
CONTINUOUS
 10
1304.3828619588
 20
1126.9630304231
 11
1303.887887212
 21
1126.4680556763
  0
LINE
  5
230
100
AcDbEntity
  8
000-SPOJ_MAT
100
AcDbLine
 62
7
  6
CONTINUOUS
 10
1324.3828619588
 20
1134.3730809295
 11
1324.8778367056
 21
1134.8680556763
  0
LINE
  5
231
100
AcDbEntity
  8
000-SPOJ_MAT
100
AcDbLine
 62
7
  6
CONTINUOUS
 10
1341.3828619588
 20
1126.9630304231
 11
1340.887887212
 21
1126.4680556763
  0
LINE
  5
232
100
AcDbEntity
  8
0
100
AcDbLine
 62
7
  6
CONTINUOUS
 10
1638.3828619588
 20
1119.4680556763
 11
1635.3828619588
 21
1116.4680556763
  0
LINE
  5
233
100
AcDbEntity
  8
AXIS
100
AcDbLine
 62
7
  6
CONTINUOUS
 10
915.3828619588
 20
1119.4680556763
 11
915.3828619588
 21
999.4685800346
  0
LINE
  5
234
100
AcDbEntity
  8
0
100
AcDbLine
 62
7
  6
CONTINUOUS
 10
920.3828619588
 20
1116.4680556763
 11
920.3828619588
 21
1112.4680556763
  0
LINE
  5
235
100
AcDbEntity
  8
AXIS
100
AcDbLine
 62
7
  6
CONTINUOUS
 10
920.3828619588
 20
1112.4680556763
 11
920.3828619588
 21
999.4685800346
  0
LINE
  5
236
100
AcDbEntity
  8
0
100
AcDbLine
 62
2
  6
CONTINUOUS
 10
923.3828619588
 20
1059.4680556763
 11
923.3828619588
 21
1112.4680556763
  0
LINE
  5
237
100
AcDbEntity
  8
AXIS
100
AcDbLine
 62
7
  6
CONTINUOUS
 10
930.3828619588
 20
1000.4685800346
 11
930.3828619588
 21
1099.4680556763
  0
LINE
  5
238
100
AcDbEntity
  8
0
100
AcDbLine
 62
6
  6
CONTINUOUS
 10
1278.8828619588
 20
1120.1980556763
 11
1278.6171619588
 21
1119.4680556763
  0
LINE
  5
239
100
AcDbEntity
  8
0
100
AcDbLine
 62
6
  6
CONTINUOUS
 10
1280.0328619588
 20
1122.7530556763
 11
1279.3688619588
 21
1120.9280556763
  0
LINE
  5
23A
100
AcDbEntity
  8
0
100
AcDbLine
 62
6
  6
CONTINUOUS
 10
1277.3828619588
 20
1073.9680556763
 11
1276.8369066074
 21
1072.4680556763
  0
LINE
  5
23B
100
AcDbEntity
  8
AXIS
100
AcDbLine
 62
7
  6
CONTINUOUS
 10
935.3828619588
 20
1000.4685800346
 11
935.3828619588
 21
1099.4680556763
  0
LINE
  5
23C
100
AcDbEntity
  8
0
100
AcDbLine
 62
2
  6
CONTINUOUS
 10
938.3828619588
 20
1059.4680556763
 11
938.3828619588
 21
1099.4680556763
  0
LINE
  5
23D
100
AcDbEntity
  8
0
100
AcDbLine
 62
7
  6
CONTINUOUS
 10
1307.3826989622
 20
1152.2463678398
 11
1307.3605109423
 21
1152.1563815971
  0
LINE
  5
23E
100
AcDbEntity
  8
0
100
AcDbLine
 62
7
  6
CONTINUOUS
 10
1307.3826989622
 20
1154.4114313493
 11
1307.3606106884
 21
1154.3219185833
  0
LWPOLYLINE
  5
23F
100
AcDbEntity
  8
0
100
AcDbPolyline
 62
7
  6
CONTINUOUS
 90
7
 70
0
 10
1307.3605070511
 20
1152.156365816
 10
1307.3446557209
 20
1152.0660658145
 10
1307.3351650736
 20
1151.9756964729
 10
1307.332014607
 20
1151.8852179141
 10
1307.335211463
 20
1151.7946901306
 10
1307.3447599069
 20
1151.7042404742
 10
1307.3606106884
 20
1151.6141927693
  0
LWPOLYLINE
  5
240
100
AcDbEntity
  8
0
100
AcDbPolyline
 62
7
  6
CONTINUOUS
 90
7
 70
0
 10
1307.3606084724
 20
1154.3219096031
 10
1307.3447559122
 20
1154.2318425016
 10
1307.335207756
 20
1154.1413685592
 10
1307.3320145905
 20
1154.050813677
 10
1307.3351714525
 20
1153.9603236662
 10
1307.3446653601
 20
1153.8699768011
 10
1307.3605109423
 20
1153.7797297555
  0
LINE
  5
241
100
AcDbEntity
  8
AXIS
100
AcDbLine
 62
7
  6
CONTINUOUS
 10
1264.3828619588
 20
1100.6680556763
 11
1264.3828619588
 21
1118.6680556763
  0
LINE
  5
242
100
AcDbEntity
  8
0
100
AcDbLine
 62
6
  6
CONTINUOUS
 10
1264.3828619588
 20
1134.0680556763
 11
1264.3828619588
 21
1136.0680556763
  0
LINE
  5
243
100
AcDbEntity
  8
0
100
AcDbLine
 62
7
  6
CONTINUOUS
 10
1266.1328619588
 20
1131.468224191
 11
1266.1328619588
 21
1134.0680556763
  0
LINE
  5
244
100
AcDbEntity
  8
0
100
AcDbLine
 62
7
  6
CONTINUOUS
 10
1266.1328619588
 20
1137.0680556763
 11
1266.1328619588
 21
1141.4667226454
  0
LINE
  5
245
100
AcDbEntity
  8
0
100
AcDbLine
 62
7
  6
CONTINUOUS
 10
1267.6328619588
 20
1131.468224191
 11
1267.6328619588
 21
1133.8080512539
  0
LINE
  5
246
100
AcDbEntity
  8
0
100
AcDbLine
 62
7
  6
CONTINUOUS
 10
1267.6328619588
 20
1137.0680556763
 11
1267.6328619588
 21
1141.4667226454
  0
LINE
  5
247
100
AcDbEntity
  8
0
100
AcDbLine
 62
6
  6
CONTINUOUS
 10
1268.7328619588
 20
1122.7530556763
 11
1268.7328619588
 21
1131.8930556763
  0
LINE
  5
248
100
AcDbEntity
  8
0
100
AcDbLine
 62
6
  6
CONTINUOUS
 10
1269.8828619588
 20
1120.1980556763
 11
1269.8828619588
 21
1120.9280556763
  0
LINE
  5
249
100
AcDbEntity
  8
0
100
AcDbLine
 62
6
  6
CONTINUOUS
 10
1271.3828619588
 20
1073.9680556763
 11
1271.3828619588
 21
1077.7360048687
  0
LINE
  5
24A
100
AcDbEntity
  8
0
100
AcDbLine
 62
6
  6
CONTINUOUS
 10
1271.3828619588
 20
1079.4680556763
 11
1271.3828619588
 21
1100.6680556763
  0
LINE
  5
24B
100
AcDbEntity
  8
0
100
AcDbLine
 62
6
  6
CONTINUOUS
 10
1271.6828619588
 20
1137.0680556763
 11
1271.6828619588
 21
1139.9580556763
  0
LINE
  5
24C
100
AcDbEntity
  8
0
100
AcDbLine
 62
6
  6
CONTINUOUS
 10
1277.0828619588
 20
1137.0680556763
 11
1277.0828619588
 21
1139.9580556763
  0
LINE
  5
24D
100
AcDbEntity
  8
0
100
AcDbLine
 62
6
  6
CONTINUOUS
 10
1277.3828619588
 20
1073.9680556763
 11
1277.3828619588
 21
1077.7360048687
  0
LINE
  5
24E
100
AcDbEntity
  8
0
100
AcDbLine
 62
6
  6
CONTINUOUS
 10
1277.3828619588
 20
1079.4680556763
 11
1277.3828619588
 21
1100.6680556763
  0
LINE
  5
24F
100
AcDbEntity
  8
0
100
AcDbLine
 62
6
  6
CONTINUOUS
 10
1278.8828619588
 20
1120.1980556763
 11
1278.8828619588
 21
1120.9280556763
  0
LINE
  5
250
100
AcDbEntity
  8
0
100
AcDbLine
 62
6
  6
CONTINUOUS
 10
1280.0328619588
 20
1122.7530556763
 11
1280.0328619588
 21
1131.8930556763
  0
LINE
  5
251
100
AcDbEntity
  8
0
100
AcDbLine
 62
7
  6
CONTINUOUS
 10
1284.3828619588
 20
1126.4680556763
 11
1284.3828619588
 21
1119.4680556763
  0
LINE
  5
252
100
AcDbEntity
  8
AXIS
100
AcDbLine
 62
7
  6
CONTINUOUS
 10
1284.3828619588
 20
1118.6680556763
 11
1284.3828619588
 21
1119.4680556763
  0
LINE
  5
253
100
AcDbEntity
  8
0
100
AcDbLine
 62
6
  6
CONTINUOUS
 10
1284.3828619588
 20
1134.0680556763
 11
1284.3828619588
 21
1136.0680556763
  0
LINE
  5
254
100
AcDbEntity
  8
000-SPOJ_MAT
100
AcDbLine
 62
7
  6
CONTINUOUS
 10
1287.3828619588
 20
1126.9630304231
 11
1287.3828619588
 21
1134.3730809295
  0
LINE
  5
255
100
AcDbEntity
  8
000-SPOJ_MAT
100
AcDbLine
 62
7
  6
CONTINUOUS
 10
1287.8778367056
 20
1134.8680556763
 11
1287.8778367056
 21
1135.6680556763
  0
LINE
  5
256
100
AcDbEntity
  8
0
100
AcDbLine
 62
7
  6
CONTINUOUS
 10
1287.8828619588
 20
1100.6680556763
 11
1287.8828619588
 21
1090.6680556763
  0
LINE
  5
257
100
AcDbEntity
  8
0
100
AcDbLine
 62
7
  6
CONTINUOUS
 10
1311.8828655975
 20
934.4623330672
 11
1309.8844686829
 21
1024.3235398219
  0
LINE
  5
258
100
AcDbEntity
  8
0
100
AcDbLine
 62
7
  6
CONTINUOUS
 10
1312.8828660837
 20
934.4734291808
 11
1310.8842214946
 21
1024.3457730303
  0
LINE
  5
259
100
AcDbEntity
  8
0
100
AcDbLine
 62
7
  6
CONTINUOUS
 10
1290.8828619588
 20
1140.6680556763
 11
1290.8828619588
 21
1136.4680556763
  0
LINE
  5
25A
100
AcDbEntity
  8
000-SPOJ_MAT
100
AcDbLine
 62
7
  6
CONTINUOUS
 10
1295.8828619588
 20
1128.2779849994
 11
1295.8828619588
 21
1133.0581263532
  0
LINE
  5
25B
100
AcDbEntity
  8
0
100
AcDbLine
 62
7
  6
CONTINUOUS
 10
1300.8828619588
 20
1140.6680556763
 11
1300.8828619588
 21
1136.4680556763
  0
LINE
  5
25C
100
AcDbEntity
  8
0
100
AcDbLine
 62
7
  6
CONTINUOUS
 10
1303.8828619588
 20
1100.6680556763
 11
1303.8828619588
 21
1090.6680556763
  0
LINE
  5
25D
100
AcDbEntity
  8
000-SPOJ_MAT
100
AcDbLine
 62
7
  6
CONTINUOUS
 10
1303.887887212
 20
1134.8680556763
 11
1303.887887212
 21
1135.6680556763
  0
LINE
  5
25E
100
AcDbEntity
  8
000-SPOJ_MAT
100
AcDbLine
 62
7
  6
CONTINUOUS
 10
1304.3828619588
 20
1126.9630304231
 11
1304.3828619588
 21
1134.3730809295
  0
LINE
  5
25F
100
AcDbEntity
  8
AXIS
100
AcDbLine
 62
7
  6
CONTINUOUS
 10
1308.6093592669
 20
1059.4680556763
 11
1308.6093592669
 21
1039.4680556763
  0
LINE
  5
260
100
AcDbEntity
  8
0
100
AcDbLine
 62
7
  6
CONTINUOUS
 10
1308.7828619588
 20
1156.7680556763
 11
1308.7828619588
 21
1149.1680556763
  0
LINE
  5
261
100
AcDbEntity
  8
0
100
AcDbLine
 62
7
  6
CONTINUOUS
 10
1309.3828619588
 20
1146.7180556763
 11
1309.3828619588
 21
1160.7705769299
  0
LINE
  5
262
100
AcDbEntity
  8
0
100
AcDbLine
 62
7
  6
CONTINUOUS
 10
1310.8828619588
 20
1126.4680556763
 11
1310.8828619588
 21
1179.4680556763
  0
LINE
  5
263
100
AcDbEntity
  8
0
100
AcDbLine
 62
7
  6
CONTINUOUS
 10
1311.3828619588
 20
1039.4680556763
 11
1311.3828619588
 21
1020.4680556763
  0
LINE
  5
264
100
AcDbEntity
  8
AXIS
100
AcDbLine
 62
7
  6
CONTINUOUS
 10
1311.4961106129
 20
1059.4680556763
 11
1311.4961106129
 21
1039.4680556763
  0
LINE
  5
265
100
AcDbEntity
  8
AXIS
100
AcDbLine
 62
7
  6
CONTINUOUS
 10
1315.3828619588
 20
831.9679958969
 11
1315.3828619588
 21
929.4680556763
  0
LINE
  5
266
100
AcDbEntity
  8
0
100
AcDbLine
 62
7
  6
CONTINUOUS
 10
1316.3828619588
 20
930.9680556763
 11
1316.3828619588
 21
1018.2367738367
  0
LINE
  5
267
100
AcDbEntity
  8
ROUND
100
AcDbLine
 62
7
  6
CONTINUOUS
 10
1316.960243277
 20
930.4680556763
 11
1316.960243277
 21
931.0160083398
  0
LINE
  5
268
100
AcDbEntity
  8
AXIS
100
AcDbLine
 62
7
  6
CONTINUOUS
 10
1317.2696133047
 20
1059.4680556763
 11
1317.2696133047
 21
1039.4680556763
  0
LINE
  5
269
100
AcDbEntity
  8
0
100
AcDbLine
 62
7
  6
CONTINUOUS
 10
1317.3828619588
 20
1039.4680556763
 11
1317.3828619588
 21
1031.9680556763
  0
LINE
  5
26A
100
AcDbEntity
  8
0
100
AcDbLine
 62
7
  6
CONTINUOUS
 10
1317.8828619588
 20
1126.4680556763
 11
1317.8828619588
 21
1179.4680556763
  0
LINE
  5
26B
100
AcDbEntity
  8
AXIS
100
AcDbLine
 62
7
  6
CONTINUOUS
 10
1320.1563646507
 20
1059.4680556763
 11
1320.1563646507
 21
1039.4680556763
  0
LINE
  5
26C
100
AcDbEntity
  8
000-SPOJ_MAT
100
AcDbLine
 62
7
  6
CONTINUOUS
 10
1324.3828619588
 20
1126.9630304231
 11
1324.3828619588
 21
1134.3730809295
  0
LINE
  5
26D
100
AcDbEntity
  8
000-SPOJ_MAT
100
AcDbLine
 62
7
  6
CONTINUOUS
 10
1324.8778367056
 20
1134.8680556763
 11
1324.8778367056
 21
1135.6680556763
  0
LINE
  5
26E
100
AcDbEntity
  8
0
100
AcDbLine
 62
7
  6
CONTINUOUS
 10
1324.8828619588
 20
1100.6680556763
 11
1324.8828619588
 21
1090.6680556763
  0
LINE
  5
26F
100
AcDbEntity
  8
0
100
AcDbLine
 62
7
  6
CONTINUOUS
 10
1327.8828619588
 20
1140.6680556763
 11
1327.8828619588
 21
1136.4680556763
  0
LINE
  5
270
100
AcDbEntity
  8
000-SPOJ_MAT
100
AcDbLine
 62
7
  6
CONTINUOUS
 10
1332.8828619588
 20
1128.2779849994
 11
1332.8828619588
 21
1133.0581263532
  0
LINE
  5
271
100
AcDbEntity
  8
0
100
AcDbLine
 62
7
  6
CONTINUOUS
 10
1337.8828619588
 20
1140.6680556763
 11
1337.8828619588
 21
1136.4680556763
  0
LINE
  5
272
100
AcDbEntity
  8
0
100
AcDbLine
 62
7
  6
CONTINUOUS
 10
1340.8828619588
 20
1100.6680556763
 11
1340.8828619588
 21
1090.6680556763
  0
LINE
  5
273
100
AcDbEntity
  8
000-SPOJ_MAT
100
AcDbLine
 62
7
  6
CONTINUOUS
 10
1340.887887212
 20
1134.8680556763
 11
1340.887887212
 21
1135.6680556763
  0
LINE
  5
274
100
AcDbEntity
  8
000-SPOJ_MAT
100
AcDbLine
 62
7
  6
CONTINUOUS
 10
1341.3828619588
 20
1126.9630304231
 11
1341.3828619588
 21
1134.3730809295
  0
LINE
  5
275
100
AcDbEntity
  8
AXIS
100
AcDbLine
 62
7
  6
CONTINUOUS
 10
1344.3828619588
 20
1118.6680556763
 11
1344.3828619588
 21
1119.4680556763
  0
LINE
  5
276
100
AcDbEntity
  8
0
100
AcDbLine
 62
7
  6
CONTINUOUS
 10
1344.3828619588
 20
1119.4680556763
 11
1344.3828619588
 21
1126.4680556763
  0
LINE
  5
277
100
AcDbEntity
  8
AXIS
100
AcDbLine
 62
7
  6
CONTINUOUS
 10
1364.3828619588
 20
1100.6680556763
 11
1364.3828619588
 21
1118.6680556763
  0
LINE
  5
278
100
AcDbEntity
  8
0
100
AcDbLine
 62
9
  6
CONTINUOUS
 10
1365.3828619588
 20
828.9681154557
 11
1365.3828619588
 21
831.9679958969
  0
LINE
  5
279
100
AcDbEntity
  8
ROUND
100
AcDbLine
 62
7
  6
CONTINUOUS
 10
1377.3828619588
 20
1042.1900341921
 11
1377.3828619588
 21
1046.3900341921
  0
LINE
  5
27A
100
AcDbEntity
  8
ROUND
100
AcDbLine
 62
9
  6
CONTINUOUS
 10
1378.8828619588
 20
1038.2913675031
 11
1378.8828619588
 21
1041.3892544705
  0
LINE
  5
27B
100
AcDbEntity
  8
ROUND
100
AcDbLine
 62
9
  6
CONTINUOUS
 10
1379.1828619588
 20
1042.1900341921
 11
1379.1828619588
 21
1048.1900341921
  0
LINE
  5
27C
100
AcDbEntity
  8
ROUND
100
AcDbLine
 62
9
  6
CONTINUOUS
 10
1379.5828619588
 20
1048.1900341921
 11
1379.5828619588
 21
1042.1900341921
  0
LINE
  5
27D
100
AcDbEntity
  8
ROUND
100
AcDbLine
 62
9
  6
CONTINUOUS
 10
1379.8828619588
 20
1041.3892544705
 11
1379.8828619588
 21
1038.2913675031
  0
LINE
  5
27E
100
AcDbEntity
  8
ROUND
100
AcDbLine
 62
7
  6
CONTINUOUS
 10
1381.3828619588
 20
1046.3900341921
 11
1381.3828619588
 21
1042.1900341921
  0
LINE
  5
27F
100
AcDbEntity
  8
AXIS
100
AcDbLine
 62
7
  6
CONTINUOUS
 10
1394.3828619588
 20
1119.4680556763
 11
1394.3828619588
 21
1119.9680556763
  0
LINE
  5
280
100
AcDbEntity
  8
AXIS
100
AcDbLine
 62
9
  6
CONTINUOUS
 10
1397.3828619588
 20
1119.4680556763
 11
1397.3828619588
 21
1119.9680556763
  0
LINE
  5
281
100
AcDbEntity
  8
0
100
AcDbLine
 62
7
  6
CONTINUOUS
 10
1414.3828619588
 20
930.4680556763
 11
1414.3828619588
 21
1028.9680556763
  0
LINE
  5
282
100
AcDbEntity
  8
AXIS
100
AcDbLine
 62
7
  6
CONTINUOUS
 10
1415.3828619588
 20
831.9680556763
 11
1415.3828619588
 21
929.4680556763
  0
LINE
  5
283
100
AcDbEntity
  8
AXIS
100
AcDbLine
 62
9
  6
CONTINUOUS
 10
1461.3828619588
 20
1119.4680556763
 11
1461.3828619588
 21
1119.9680556763
  0
LINE
  5
284
100
AcDbEntity
  8
AXIS
100
AcDbLine
 62
7
  6
CONTINUOUS
 10
1464.3828619588
 20
1119.4680556763
 11
1464.3828619588
 21
1119.9680556763
  0
LINE
  5
285
100
AcDbEntity
  8
0
100
AcDbLine
 62
2
  6
CONTINUOUS
 10
1617.3828619588
 20
1099.4680556763
 11
1617.3828619588
 21
1059.4680556763
  0
LINE
  5
286
100
AcDbEntity
  8
AXIS
100
AcDbLine
 62
7
  6
CONTINUOUS
 10
1620.3828619588
 20
1000.4685800346
 11
1620.3828619588
 21
1099.4680556763
  0
LINE
  5
287
100
AcDbEntity
  8
AXIS
100
AcDbLine
 62
7
  6
CONTINUOUS
 10
1625.3828619588
 20
1000.4685800346
 11
1625.3828619588
 21
1099.4680556763
  0
LINE
  5
288
100
AcDbEntity
  8
0
100
AcDbLine
 62
2
  6
CONTINUOUS
 10
1632.3828619588
 20
1112.4680556763
 11
1632.3828619588
 21
1059.4680556763
  0
LINE
  5
289
100
AcDbEntity
  8
0
100
AcDbLine
 62
7
  6
CONTINUOUS
 10
1635.3828619588
 20
1116.4680556763
 11
1635.3828619588
 21
1029.4680556763
  0
LINE
  5
28A
100
AcDbEntity
  8
AXIS
100
AcDbLine
 62
7
  6
CONTINUOUS
 10
1635.3828619588
 20
1029.4680556763
 11
1635.3828619588
 21
999.4685800346
  0
LINE
  5
28B
100
AcDbEntity
  8
AXIS
100
AcDbLine
 62
7
  6
CONTINUOUS
 10
1640.3828619588
 20
1119.4680556763
 11
1640.3828619588
 21
999.4685800346
  0
LWPOLYLINE
  5
28C
100
AcDbEntity
  8
0
100
AcDbPolyline
 62
6
  6
CONTINUOUS
 90
21
 70
0
 10
1271.3938360209
 20
1079.4351673956
 10
1271.4069039446
 20
1079.3949623184
 10
1271.4239644894
 20
1079.3394840284
 10
1271.4438201793
 20
1079.269141887
 10
1271.4650188151
 20
1079.1844432904
 10
1271.4859141819
 20
1079.0864800486
 10
1271.5047258308
 20
1078.9770401664
 10
1271.5197007759
 20
1078.858153985
 10
1271.5294060444
 20
1078.7325533673
 10
1271.532850605
 20
1078.6035429817
 10
1271.5295661926
 20
1078.4744174535
 10
1271.519969772
 20
1078.3485121548
 10
1271.5050562564
 20
1078.2291408789
 10
1271.4862174232
 20
1078.1192003295
 10
1271.4652490095
 20
1078.0206575836
 10
1271.4439642275
 20
1077.9352983703
 10
1271.4240404098
 20
1077.8643914623
 10
1271.4069418271
 20
1077.8085551422
 10
1271.3938576575
 20
1077.7683620545
 10
1271.3856549635
 20
1077.7441246075
 10
1271.3828619588
 20
1077.7360048687
  0
LINE
  5
28D
100
AcDbEntity
  8
0
100
AcDbLine
 62
7
  6
CONTINUOUS
 10
1305.5516875428
 20
1175.068714503
 11
1309.3828619588
 21
1160.7705769299
  0
LINE
  5
28E
100
AcDbEntity
  8
ROUND
100
AcDbLine
 62
7
  6
CONTINUOUS
 10
1308.6181953142
 20
1169.4199066563
 11
1310.7124910902
 21
1161.6038884139
  0
LINE
  5
28F
100
AcDbEntity
  8
0
100
AcDbLine
 62
7
  6
CONTINUOUS
 10
1307.0005762823
 20
1175.4569430706
 11
1308.6181953142
 21
1169.4199066563
  0
LINE
  5
290
100
AcDbEntity
  8
0
100
AcDbLine
 62
7
  6
CONTINUOUS
 10
1307.3606106884
 20
1151.6141927693
 11
1307.3826989622
 21
1151.5246800033
  0
LINE
  5
291
100
AcDbEntity
  8
0
100
AcDbLine
 62
7
  6
CONTINUOUS
 10
1307.3605109423
 20
1153.7797297555
 11
1307.3826989622
 21
1153.6897435128
  0
LINE
  5
292
100
AcDbEntity
  8
0
100
AcDbLine
 62
6
  6
CONTINUOUS
 10
1271.3828619588
 20
1073.9680556763
 11
1271.9288173102
 21
1072.4680556763
  0
LINE
  5
293
100
AcDbEntity
  8
0
100
AcDbLine
 62
6
  6
CONTINUOUS
 10
1269.8828619588
 20
1120.1980556763
 11
1270.1485619588
 21
1119.4680556763
  0
LINE
  5
294
100
AcDbEntity
  8
0
100
AcDbLine
 62
6
  6
CONTINUOUS
 10
1268.7328619588
 20
1122.7530556763
 11
1269.3968619588
 21
1120.9280556763
  0
LWPOLYLINE
  5
295
100
AcDbEntity
  8
0
100
AcDbPolyline
 62
6
  6
CONTINUOUS
 90
23
 70
0
 10
1277.3828619588
 20
1077.7360048687
 10
1277.3800700641
 20
1077.7441120418
 10
1277.3718754687
 20
1077.7683231618
 10
1277.3588141363
 20
1077.8084629201
 10
1277.3417593752
 20
1077.8641782584
 10
1277.3219006703
 20
1077.934807232
 10
1277.3006970937
 20
1078.0196402782
 10
1277.2798039846
 20
1078.1175134088
 10
1277.2609928597
 20
1078.2269099176
 10
1277.2460180605
 20
1078.3461090598
 10
1277.2362925647
 20
1078.47217523
 10
1277.2328737464
 20
1078.6016258854
 10
1277.2362293724
 20
1078.7309791496
 10
1277.2458891889
 20
1078.8568793756
 10
1277.2608414313
 20
1078.9759859675
 10
1277.2796465916
 20
1079.0855902227
 10
1277.3005570456
 20
1079.1837607235
 10
1277.3217900976
 20
1079.268816816
 10
1277.3416816111
 20
1079.3396091311
 10
1277.3587664945
 20
1079.3954317868
 10
1277.3718508079
 20
1079.435702787
 10
1277.3800596767
 20
1079.4600077679
 10
1277.3828619494
 20
1079.4680376144
  0
LINE
  5
296
100
AcDbEntity
  8
0
100
AcDbLine
 62
6
  6
CONTINUOUS
 10
1271.3828619682
 20
1079.4680376144
 11
1271.3938360209
 21
1079.4351673956
  0
LINE
  5
297
100
AcDbEntity
  8
0
100
AcDbLine
 62
7
  6
CONTINUOUS
 10
920.3828619588
 20
1116.4680556763
 11
917.3828619588
 21
1119.4680556763
  0
LINE
  5
298
100
AcDbEntity
  8
0
100
AcDbLine
 62
6
  6
CONTINUOUS
 10
1267.8828619588
 20
1133.6179578423
 11
1267.8521972796
 21
1133.646621021
  0
LINE
  5
299
100
AcDbEntity
  8
000-SPOJ_MAT
100
AcDbLine
 62
7
  6
CONTINUOUS
 10
1287.3828619588
 20
1126.9630304231
 11
1287.8778367056
 21
1126.4680556763
  0
LINE
  5
29A
100
AcDbEntity
  8
0
100
AcDbLine
 62
6
  6
CONTINUOUS
 10
1277.0828619588
 20
1139.9580556763
 11
1276.8728619588
 21
1140.1680556763
  0
LINE
  5
29B
100
AcDbEntity
  8
000-SPOJ_MAT
100
AcDbLine
 62
7
  6
CONTINUOUS
 10
1304.3828619588
 20
1134.3730809295
 11
1303.887887212
 21
1134.8680556763
  0
LWPOLYLINE
  5
29C
100
AcDbEntity
  8
0
100
AcDbPolyline
 62
7
  6
CONTINUOUS
 90
31
 70
0
 10
1415.3828619588
 20
828.9680556763
 10
1415.5386749868
 20
828.976212231
 10
1415.6929001515
 20
829.0005032437
 10
1415.8438929505
 20
829.0406716224
 10
1415.989990977
 20
829.0964418223
 10
1416.1296254812
 20
829.1672232586
 10
1416.2613145132
 20
829.2522252047
 10
1416.3835546408
 20
829.3506505819
 10
1416.4949417789
 20
829.4615193485
 10
1416.5942922245
 20
829.5835743749
 10
1416.680428767
 20
829.7155131262
 10
1416.752219539
 20
829.8558991775
 10
1416.8089070097
 20
830.0030508571
 10
1416.8498720141
 20
830.155233637
 10
1416.8745577105
 20
830.3106669273
 10
1416.8828020863
 20
830.4675257266
 10
1416.8746984441
 20
830.6241002646
 10
1416.8503230052
 20
830.7787579585
 10
1416.8099299485
 20
830.9299135253
 10
1416.7540427108
 20
831.0761140343
 10
1416.6831387357
 20
831.2159060894
 10
1416.5977870135
 20
831.3477334795
 10
1416.4989636294
 20
831.4701288994
 10
1416.3877614287
 20
831.5816770963
 10
1416.2653306299
 20
831.6809764865
 10
1416.1330940445
 20
831.7668907249
 10
1415.9926342531
 20
831.8384953582
 10
1415.8455910733
 20
831.8948906389
 10
1415.6937145181
 20
831.9354359741
 10
1415.5388596443
 20
831.9598797661
 10
1415.3828619588
 20
831.9680556763
  0
LINE
  5
29D
100
AcDbEntity
  8
0
100
AcDbLine
 62
7
  6
CONTINUOUS
 10
1315.3828619588
 20
828.9681154557
 11
1415.3828619588
 21
828.9680556763
  0
LINE
  5
29E
100
AcDbEntity
  8
0
100
AcDbLine
 62
7
  6
CONTINUOUS
 10
1415.3828619588
 20
831.9680556763
 11
1315.3828619588
 21
831.9679958969
  0
LINE
  5
29F
100
AcDbEntity
  8
0
100
AcDbLine
 62
6
  6
CONTINUOUS
 10
1267.7487896896
 20
1133.7315112406
 11
1267.8521972796
 21
1133.646621021
  0
LINE
  5
2A0
100
AcDbEntity
  8
0
100
AcDbLine
 62
6
  6
CONTINUOUS
 10
1267.8494256489
 20
1133.6486565627
 11
1267.8828619588
 21
1133.6179578423
  0
LINE
  5
2A1
100
AcDbEntity
  8
0
100
AcDbLine
 62
6
  6
CONTINUOUS
 10
1284.3828619588
 20
1136.0680556763
 11
1283.3047619588
 21
1137.0680556763
  0
LINE
  5
2A2
100
AcDbEntity
  8
000-SPOJ_MAT
100
AcDbLine
 62
7
  6
CONTINUOUS
 10
1324.3828619588
 20
1126.9630304231
 11
1324.8778367056
 21
1126.4680556763
  0
LINE
  5
2A3
100
AcDbEntity
  8
000-SPOJ_MAT
100
AcDbLine
 62
7
  6
CONTINUOUS
 10
1341.3828619588
 20
1134.3730809295
 11
1340.887887212
 21
1134.8680556763
  0
LWPOLYLINE
  5
2A4
100
AcDbEntity
  8
ROUND
100
AcDbPolyline
 62
7
  6
CONTINUOUS
 90
10
 70
0
 10
1316.960243277
 20
930.4680556763
 10
1316.843785794
 20
930.4614109225
 10
1316.7283712756
 20
930.4414461917
 10
1316.6164074179
 20
930.4085489124
 10
1316.5094458688
 20
930.3633208578
 10
1316.407990339
 20
930.3059596407
 10
1316.3140026393
 20
930.2374913182
 10
1316.2291672232
 20
930.1593351618
 10
1316.154141173
 20
930.0723562663
 10
1316.089727276
 20
929.9776133754
  0
LINE
  5
2A5
100
AcDbEntity
  8
ROUND
100
AcDbLine
 62
9
  6
CONTINUOUS
 10
1315.3828619588
 20
929.4680556763
 11
1415.3828619588
 21
929.4680556763
  0
LINE
  5
2A6
100
AcDbEntity
  8
0
100
AcDbLine
 62
7
  6
CONTINUOUS
 10
1316.960243277
 20
930.4680556763
 11
1414.3828619588
 21
930.4680556763
  0
LINE
  5
2A7
100
AcDbEntity
  8
ROUND
100
AcDbLine
 62
7
  6
CONTINUOUS
 10
1316.960243277
 20
930.4680556763
 11
1414.3828619588
 21
930.4680556763
  0
LINE
  5
2A8
100
AcDbEntity
  8
0
100
AcDbLine
 62
6
  6
CONTINUOUS
 10
1267.5713295047
 20
1133.8484968451
 11
1267.7487896896
 21
1133.7315112406
  0
LINE
  5
2A9
100
AcDbEntity
  8
0
100
AcDbLine
 62
6
  6
CONTINUOUS
 10
1267.7528386669
 20
1133.7283179425
 11
1267.7519550149
 21
1133.7289051939
  0
LINE
  5
2AA
100
AcDbEntity
  8
AXIS
100
AcDbLine
 62
7
  6
CONTINUOUS
 10
915.3828619588
 20
999.4680556763
 11
920.3828619588
 21
999.4680556763
  0
LINE
  5
2AB
100
AcDbEntity
  8
AXIS
100
AcDbLine
 62
7
  6
CONTINUOUS
 10
1635.3828619588
 20
999.4680556763
 11
1640.3828619588
 21
999.4680556763
  0
LINE
  5
2AC
100
AcDbEntity
  8
AXIS
100
AcDbLine
 62
7
  6
CONTINUOUS
 10
1625.3828619588
 20
1000.4680556763
 11
1620.3828619588
 21
1000.4680556763
  0
LINE
  5
2AD
100
AcDbEntity
  8
AXIS
100
AcDbLine
 62
7
  6
CONTINUOUS
 10
935.3828619588
 20
1000.4680556763
 11
930.3828619588
 21
1000.4680556763
  0
LINE
  5
2AE
100
AcDbEntity
  8
0
100
AcDbLine
 62
7
  6
CONTINUOUS
 10
1317.3828619588
 20
1028.9680556763
 11
1414.3828619588
 21
1028.9680556763
  0
LINE
  5
2AF
100
AcDbEntity
  8
AXIS
100
AcDbLine
 62
9
  6
CONTINUOUS
 10
915.3828619588
 20
1029.4680556763
 11
920.3828619588
 21
1029.4680556763
  0
LINE
  5
2B0
100
AcDbEntity
  8
AXIS
100
AcDbLine
 62
9
  6
CONTINUOUS
 10
1635.3828619588
 20
1029.4680556763
 11
1640.3828619588
 21
1029.4680556763
  0
LINE
  5
2B1
100
AcDbEntity
  8
AXIS
100
AcDbLine
 62
9
  6
CONTINUOUS
 10
1625.3828619588
 20
1030.4680556763
 11
1620.3828619588
 21
1030.4680556763
  0
LINE
  5
2B2
100
AcDbEntity
  8
AXIS
100
AcDbLine
 62
9
  6
CONTINUOUS
 10
935.3828619588
 20
1030.4680556763
 11
930.3828619588
 21
1030.4680556763
  0
LINE
  5
2B3
100
AcDbEntity
  8
0
100
AcDbLine
 62
9
  6
CONTINUOUS
 10
1314.3828619588
 20
1030.9680556763
 11
1311.3828619588
 21
1030.9680556763
  0
LINE
  5
2B4
100
AcDbEntity
  8
0
100
AcDbLine
 62
7
  6
CONTINUOUS
 10
1414.3828619588
 20
1031.9680556763
 11
1317.3828619588
 21
1031.9680556763
  0
LINE
  5
2B5
100
AcDbEntity
  8
0
100
AcDbLine
 62
9
  6
CONTINUOUS
 10
1390.6064490514
 20
1038.1934805357
 11
1340.1592748662
 21
1038.1934805357
  0
LINE
  5
2B6
100
AcDbEntity
  8
0
100
AcDbLine
 62
7
  6
CONTINUOUS
 10
1389.9884150627
 20
1038.2913675031
 11
1340.7773088549
 21
1038.2913675031
  0
LINE
  5
2B7
100
AcDbEntity
  8
AXIS
100
AcDbLine
 62
7
  6
CONTINUOUS
 10
1308.6093592669
 20
1039.4680556763
 11
1320.1563646507
 21
1039.4680556763
  0
LINE
  5
2B8
100
AcDbEntity
  8
ROUND
100
AcDbLine
 62
7
  6
CONTINUOUS
 10
1378.8828619588
 20
1041.3892544705
 11
1379.8828619588
 21
1041.3892544705
  0
LINE
  5
2B9
100
AcDbEntity
  8
ROUND
100
AcDbLine
 62
7
  6
CONTINUOUS
 10
1377.3828619588
 20
1042.1900341921
 11
1381.3828619588
 21
1042.1900341921
  0
LINE
  5
2BA
100
AcDbEntity
  8
ROUND
100
AcDbLine
 62
9
  6
CONTINUOUS
 10
1377.3828619588
 20
1046.3900341921
 11
1381.3828619588
 21
1046.3900341921
  0
LINE
  5
2BB
100
AcDbEntity
  8
ROUND
100
AcDbLine
 62
7
  6
CONTINUOUS
 10
1379.5828619588
 20
1048.1900341921
 11
1379.1828619588
 21
1048.1900341921
  0
LINE
  5
2BC
100
AcDbEntity
  8
0
100
AcDbLine
 62
7
  6
CONTINUOUS
 10
1632.3828619588
 20
1059.4680556763
 11
1625.3828619588
 21
1059.4680556763
  0
LINE
  5
2BD
100
AcDbEntity
  8
0
100
AcDbLine
 62
7
  6
CONTINUOUS
 10
1617.3828619588
 20
1059.4680556763
 11
938.3828619588
 21
1059.4680556763
  0
LINE
  5
2BE
100
AcDbEntity
  8
0
100
AcDbLine
 62
2
  6
CONTINUOUS
 10
938.3828619588
 20
1059.4680556763
 11
935.3828619588
 21
1059.4680556763
  0
LINE
  5
2BF
100
AcDbEntity
  8
0
100
AcDbLine
 62
7
  6
CONTINUOUS
 10
930.3828619588
 20
1059.4680556763
 11
923.3828619588
 21
1059.4680556763
  0
LINE
  5
2C0
100
AcDbEntity
  8
0
100
AcDbLine
 62
2
  6
CONTINUOUS
 10
923.3828619588
 20
1059.4680556763
 11
920.3828619588
 21
1059.4680556763
  0
LINE
  5
2C1
100
AcDbEntity
  8
0
100
AcDbLine
 62
2
  6
CONTINUOUS
 10
1617.3828619588
 20
1059.4680556763
 11
1620.3828619588
 21
1059.4680556763
  0
LINE
  5
2C2
100
AcDbEntity
  8
0
100
AcDbLine
 62
2
  6
CONTINUOUS
 10
1632.3828619588
 20
1059.4680556763
 11
1635.3828619588
 21
1059.4680556763
  0
LINE
  5
2C3
100
AcDbEntity
  8
0
100
AcDbLine
 62
7
  6
CONTINUOUS
 10
1390.6064490514
 20
1038.1934805357
 11
1409.766336653
 21
1031.9680556763
  0
LINE
  5
2C4
100
AcDbEntity
  8
0
100
AcDbLine
 62
6
  6
CONTINUOUS
 10
1267.3150566318
 20
1133.9654422521
 11
1267.5713295047
 21
1133.8484968451
  0
LWPOLYLINE
  5
2C5
100
AcDbEntity
  8
000-SPOJ_MAT
100
AcDbPolyline
 62
7
  6
CONTINUOUS
 90
11
 70
0
 10
1287.3828619588
 20
1128.2779849994
 10
1288.3133464395
 20
1127.7873129359
 10
1289.1819770365
 20
1127.4217756405
 10
1290.0144083769
 20
1127.1660484435
 10
1290.8277439796
 20
1127.013719671
 10
1291.6331965295
 20
1126.9630304319
 10
1292.4386549487
 20
1127.0138044499
 10
1293.2519985961
 20
1127.1662178431
 10
1294.0844945438
 20
1127.4220483999
 10
1294.9529562637
 20
1127.7875876919
 10
1295.8828619588
 20
1128.2779849994
  0
LWPOLYLINE
  5
2C6
100
AcDbEntity
  8
000-SPOJ_MAT
100
AcDbPolyline
 62
7
  6
CONTINUOUS
 90
11
 70
0
 10
1295.8828619588
 20
1128.2779849994
 10
1296.8133464395
 20
1127.7873129359
 10
1297.6819770365
 20
1127.4217756405
 10
1298.5144083769
 20
1127.1660484435
 10
1299.3277439796
 20
1127.013719671
 10
1300.1331965295
 20
1126.9630304319
 10
1300.9386549487
 20
1127.0138044499
 10
1301.7519985961
 20
1127.1662178431
 10
1302.5844945438
 20
1127.4220483999
 10
1303.4529562637
 20
1127.7875876919
 10
1304.3828619588
 20
1128.2779849994
  0
LWPOLYLINE
  5
2C7
100
AcDbEntity
  8
000-SPOJ_MAT
100
AcDbPolyline
 62
7
  6
CONTINUOUS
 90
11
 70
0
 10
1295.8828619588
 20
1133.0581263532
 10
1294.9529556914
 20
1133.5485239324
 10
1294.0844979595
 20
1133.9140617064
 10
1293.2520037137
 20
1134.1698922401
 10
1292.4386563801
 20
1134.3223067229
 10
1291.6331920642
 20
1134.3730809209
 10
1290.8277337063
 20
1134.3223903918
 10
1290.0143949251
 20
1134.1700595737
 10
1289.1819636324
 20
1133.9143308227
 10
1288.3133420288
 20
1133.5487963231
 10
1287.3828619588
 20
1133.0581263532
  0
LWPOLYLINE
  5
2C8
100
AcDbEntity
  8
000-SPOJ_MAT
100
AcDbPolyline
 62
7
  6
CONTINUOUS
 90
11
 70
0
 10
1304.3828619588
 20
1133.0581263532
 10
1303.452377506
 20
1133.5487984035
 10
1302.5837469303
 20
1133.9143356941
 10
1301.7513156071
 20
1134.1700628927
 10
1300.9379800237
 20
1134.3223916708
 10
1300.1325274935
 20
1134.3730809207
 10
1299.3270691036
 20
1134.3223069196
 10
1298.5137254579
 20
1134.1698935433
 10
1297.6812296467
 20
1133.9140630522
 10
1296.8127675106
 20
1133.5485235927
 10
1295.8828619588
 20
1133.0581263532
  0
LWPOLYLINE
  5
2C9
100
AcDbEntity
  8
000-SPOJ_MAT
100
AcDbPolyline
 62
7
  6
CONTINUOUS
 90
11
 70
0
 10
1324.3828619588
 20
1128.2779849994
 10
1325.3133464395
 20
1127.7873129359
 10
1326.1819770365
 20
1127.4217756405
 10
1327.0144083769
 20
1127.1660484435
 10
1327.8277439796
 20
1127.013719671
 10
1328.6331965295
 20
1126.9630304319
 10
1329.4386549487
 20
1127.0138044499
 10
1330.2519985961
 20
1127.1662178431
 10
1331.0844945438
 20
1127.4220483999
 10
1331.9529562637
 20
1127.7875876919
 10
1332.8828619588
 20
1128.2779849994
  0
LWPOLYLINE
  5
2CA
100
AcDbEntity
  8
000-SPOJ_MAT
100
AcDbPolyline
 62
7
  6
CONTINUOUS
 90
11
 70
0
 10
1332.8828619588
 20
1128.2779849994
 10
1333.8133464395
 20
1127.7873129359
 10
1334.6819770365
 20
1127.4217756405
 10
1335.5144083769
 20
1127.1660484435
 10
1336.3277439796
 20
1127.013719671
 10
1337.1331965295
 20
1126.9630304319
 10
1337.9386549487
 20
1127.0138044499
 10
1338.7519985961
 20
1127.1662178431
 10
1339.5844945438
 20
1127.4220483999
 10
1340.4529562637
 20
1127.7875876919
 10
1341.3828619588
 20
1128.2779849994
  0
LWPOLYLINE
  5
2CB
100
AcDbEntity
  8
000-SPOJ_MAT
100
AcDbPolyline
 62
7
  6
CONTINUOUS
 90
11
 70
0
 10
1332.8828619588
 20
1133.0581263532
 10
1331.9529556914
 20
1133.5485239324
 10
1331.0844979595
 20
1133.9140617064
 10
1330.2520037137
 20
1134.1698922401
 10
1329.4386563801
 20
1134.3223067229
 10
1328.6331920642
 20
1134.3730809209
 10
1327.8277337063
 20
1134.3223903918
 10
1327.0143949251
 20
1134.1700595737
 10
1326.1819636324
 20
1133.9143308227
 10
1325.3133420288
 20
1133.5487963231
 10
1324.3828619588
 20
1133.0581263532
  0
LWPOLYLINE
  5
2CC
100
AcDbEntity
  8
000-SPOJ_MAT
100
AcDbPolyline
 62
7
  6
CONTINUOUS
 90
11
 70
0
 10
1341.3828619588
 20
1133.0581263532
 10
1340.452377506
 20
1133.5487984035
 10
1339.5837469303
 20
1133.9143356941
 10
1338.7513156071
 20
1134.1700628927
 10
1337.9379800237
 20
1134.3223916708
 10
1337.1325274935
 20
1134.3730809207
 10
1336.3270691036
 20
1134.3223069196
 10
1335.5137254579
 20
1134.1698935433
 10
1334.6812296467
 20
1133.9140630522
 10
1333.8127675106
 20
1133.5485235927
 10
1332.8828619588
 20
1133.0581263532
  0
LINE
  5
2CD
100
AcDbEntity
  8
0
100
AcDbLine
 62
7
  6
CONTINUOUS
 10
1635.3828619588
 20
1116.4680556763
 11
1632.3828619588
 21
1119.4680556763
  0
LINE
  5
2CE
100
AcDbEntity
  8
0
100
AcDbLine
 62
9
  6
CONTINUOUS
 10
1308.6181953142
 20
1169.4199066563
 11
1307.1693065747
 21
1169.0316780887
  0
LINE
  5
2CF
100
AcDbEntity
  8
0
100
AcDbLine
 62
7
  6
CONTINUOUS
 10
1305.5516875428
 20
1175.068714503
 11
1307.0005762823
 21
1175.4569430706
  0
LINE
  5
2D0
100
AcDbEntity
  8
0
100
AcDbLine
 62
6
  6
CONTINUOUS
 10
1276.8368835534
 20
1072.4680556763
 11
1271.9288403642
 21
1072.4680556763
  0
LINE
  5
2D1
100
AcDbEntity
  8
0
100
AcDbLine
 62
6
  6
CONTINUOUS
 10
1277.3828619588
 20
1073.9680556763
 11
1271.3828619588
 21
1073.9680556763
  0
LINE
  5
2D2
100
AcDbEntity
  8
0
100
AcDbLine
 62
7
  6
CONTINUOUS
 10
1340.8828619588
 20
1090.6680556763
 11
1324.8828619588
 21
1090.6680556763
  0
LINE
  5
2D3
100
AcDbEntity
  8
0
100
AcDbLine
 62
7
  6
CONTINUOUS
 10
1303.8828619588
 20
1090.6680556763
 11
1287.8828619588
 21
1090.6680556763
  0
LINE
  5
2D4
100
AcDbEntity
  8
AXIS
100
AcDbLine
 62
7
  6
CONTINUOUS
 10
1625.3828619588
 20
1099.4680556763
 11
1620.3828619588
 21
1099.4680556763
  0
LINE
  5
2D5
100
AcDbEntity
  8
0
100
AcDbLine
 62
2
  6
CONTINUOUS
 10
938.3828619588
 20
1099.4680556763
 11
935.3828619588
 21
1099.4680556763
  0
LINE
  5
2D6
100
AcDbEntity
  8
AXIS
100
AcDbLine
 62
7
  6
CONTINUOUS
 10
935.3828619588
 20
1099.4680556763
 11
930.3828619588
 21
1099.4680556763
  0
LINE
  5
2D7
100
AcDbEntity
  8
0
100
AcDbLine
 62
2
  6
CONTINUOUS
 10
1617.3828619588
 20
1099.4680556763
 11
1620.3828619588
 21
1099.4680556763
  0
LINE
  5
2D8
100
AcDbEntity
  8
AXIS
100
AcDbLine
 62
7
  6
CONTINUOUS
 10
1264.3828619588
 20
1100.6680556763
 11
1364.3828619588
 21
1100.6680556763
  0
LINE
  5
2D9
100
AcDbEntity
  8
AXIS
100
AcDbLine
 62
7
  6
CONTINUOUS
 10
915.3828619588
 20
1101.4680556763
 11
920.3828619588
 21
1101.4680556763
  0
LINE
  5
2DA
100
AcDbEntity
  8
AXIS
100
AcDbLine
 62
7
  6
CONTINUOUS
 10
1264.3828619588
 20
1110.6680556763
 11
1364.3828619588
 21
1110.6680556763
  0
LINE
  5
2DB
100
AcDbEntity
  8
0
100
AcDbLine
 62
7
  6
CONTINUOUS
 10
1635.3828619588
 20
1112.4680556763
 11
1364.3828619588
 21
1112.4680556763
  0
LINE
  5
2DC
100
AcDbEntity
  8
0
100
AcDbLine
 62
7
  6
CONTINUOUS
 10
1264.3828619588
 20
1112.4680556763
 11
920.3828619588
 21
1112.4680556763
  0
LINE
  5
2DD
100
AcDbEntity
  8
AXIS
100
AcDbLine
 62
7
  6
CONTINUOUS
 10
915.3828619588
 20
1112.4680556763
 11
920.3828619588
 21
1112.4680556763
  0
LINE
  5
2DE
100
AcDbEntity
  8
AXIS
100
AcDbLine
 62
7
  6
CONTINUOUS
 10
1264.3828619588
 20
1118.6680556763
 11
1364.3828619588
 21
1118.6680556763
  0
LINE
  5
2DF
100
AcDbEntity
  8
0
100
AcDbLine
 62
2
  6
CONTINUOUS
 10
917.5544348341
 20
1119.296482801
 11
923.2112890835
 21
1119.296482801
  0
LINE
  5
2E0
100
AcDbEntity
  8
0
100
AcDbLine
 62
2
  6
CONTINUOUS
 10
1632.5544348341
 20
1119.296482801
 11
1638.2112890835
 21
1119.296482801
  0
LINE
  5
2E1
100
AcDbEntity
  8
0
100
AcDbLine
 62
7
  6
CONTINUOUS
 10
915.3828619588
 20
1119.4680556763
 11
917.3828619588
 21
1119.4680556763
  0
LINE
  5
2E2
100
AcDbEntity
  8
0
100
AcDbLine
 62
7
  6
CONTINUOUS
 10
923.3828619588
 20
1119.4680556763
 11
1632.3828619588
 21
1119.4680556763
  0
LINE
  5
2E3
100
AcDbEntity
  8
0
100
AcDbLine
 62
7
  6
CONTINUOUS
 10
1638.3828619588
 20
1119.4680556763
 11
1640.3828619588
 21
1119.4680556763
  0
LINE
  5
2E4
100
AcDbEntity
  8
AXIS
100
AcDbLine
 62
7
  6
CONTINUOUS
 10
1394.3828619588
 20
1119.9680556763
 11
1464.3828619588
 21
1119.9680556763
  0
LINE
  5
2E5
100
AcDbEntity
  8
0
100
AcDbLine
 62
6
  6
CONTINUOUS
 10
1278.8828619588
 20
1120.1980556763
 11
1269.8828619588
 21
1120.1980556763
  0
LINE
  5
2E6
100
AcDbEntity
  8
0
100
AcDbLine
 62
6
  6
CONTINUOUS
 10
1279.3688535142
 20
1120.9280556763
 11
1269.3968704034
 21
1120.9280556763
  0
LINE
  5
2E7
100
AcDbEntity
  8
ROUND
100
AcDbLine
 62
7
  6
CONTINUOUS
 10
1399.3424596572
 20
1121.5680556763
 11
1399.4232783296
 21
1121.5680556763
  0
LINE
  5
2E8
100
AcDbEntity
  8
ROUND
100
AcDbLine
 62
7
  6
CONTINUOUS
 10
1459.3424596572
 20
1121.5680556763
 11
1459.4232783296
 21
1121.5680556763
  0
LINE
  5
2E9
100
AcDbEntity
  8
0
100
AcDbLine
 62
6
  6
CONTINUOUS
 10
1280.0328619588
 20
1122.7530556763
 11
1268.7328619588
 21
1122.7530556763
  0
LINE
  5
2EA
100
AcDbEntity
  8
0
100
AcDbLine
 62
7
  6
CONTINUOUS
 10
1344.3828619588
 20
1126.4680556763
 11
1317.8828619588
 21
1126.4680556763
  0
LINE
  5
2EB
100
AcDbEntity
  8
0
100
AcDbLine
 62
7
  6
CONTINUOUS
 10
1310.8828619588
 20
1126.4680556763
 11
1284.3828619588
 21
1126.4680556763
  0
LINE
  5
2EC
100
AcDbEntity
  8
0
100
AcDbLine
 62
9
  6
CONTINUOUS
 10
1268.7328619588
 20
1131.8930556763
 11
1280.0328619588
 21
1131.8930556763
  0
LINE
  5
2ED
100
AcDbEntity
  8
0
100
AcDbLine
 62
6
  6
CONTINUOUS
 10
1284.3828538797
 20
1134.0680556763
 11
1264.3828700379
 21
1134.0680556763
  0
LINE
  5
2EE
100
AcDbEntity
  8
000-SPOJ_MAT
100
AcDbLine
 62
7
  6
CONTINUOUS
 10
1287.8778367056
 20
1134.8680556763
 11
1303.887887212
 21
1134.8680556763
  0
LINE
  5
2EF
100
AcDbEntity
  8
000-SPOJ_MAT
100
AcDbLine
 62
7
  6
CONTINUOUS
 10
1324.8778367056
 20
1134.8680556763
 11
1340.887887212
 21
1134.8680556763
  0
LINE
  5
2F0
100
AcDbEntity
  8
000-SPOJ_MAT
100
AcDbLine
 62
9
  6
CONTINUOUS
 10
1340.887887212
 20
1135.6680556763
 11
1324.8778367056
 21
1135.6680556763
  0
LINE
  5
2F1
100
AcDbEntity
  8
000-SPOJ_MAT
100
AcDbLine
 62
9
  6
CONTINUOUS
 10
1303.887887212
 20
1135.6680556763
 11
1287.8778367056
 21
1135.6680556763
  0
LINE
  5
2F2
100
AcDbEntity
  8
0
100
AcDbLine
 62
6
  6
CONTINUOUS
 10
1264.3828619588
 20
1136.0680556763
 11
1284.3828619588
 21
1136.0680556763
  0
LINE
  5
2F3
100
AcDbEntity
  8
000-SPOJ_MAT
100
AcDbLine
 62
7
  6
CONTINUOUS
 10
1340.0878027577
 20
1136.4680556763
 11
1325.6779211599
 21
1136.4680556763
  0
LINE
  5
2F4
100
AcDbEntity
  8
000-SPOJ_MAT
100
AcDbLine
 62
7
  6
CONTINUOUS
 10
1303.0878027577
 20
1136.4680556763
 11
1288.6779211599
 21
1136.4680556763
  0
LINE
  5
2F5
100
AcDbEntity
  8
0
100
AcDbLine
 62
2
  6
CONTINUOUS
 10
1283.3047619588
 20
1137.0680556763
 11
1265.5484682332
 21
1137.0680556763
  0
LINE
  5
2F6
100
AcDbEntity
  8
0
100
AcDbLine
 62
6
  6
CONTINUOUS
 10
1271.6828619588
 20
1139.9580556763
 11
1277.0828619588
 21
1139.9580556763
  0
LINE
  5
2F7
100
AcDbEntity
  8
0
100
AcDbLine
 62
6
  6
CONTINUOUS
 10
1271.8928695093
 20
1140.1680556763
 11
1276.8728544083
 21
1140.1680556763
  0
LINE
  5
2F8
100
AcDbEntity
  8
0
100
AcDbLine
 62
7
  6
CONTINUOUS
 10
1337.8828619588
 20
1140.6680556763
 11
1327.8828619588
 21
1140.6680556763
  0
LINE
  5
2F9
100
AcDbEntity
  8
0
100
AcDbLine
 62
7
  6
CONTINUOUS
 10
1300.8828619588
 20
1140.6680556763
 11
1290.8828619588
 21
1140.6680556763
  0
LINE
  5
2FA
100
AcDbEntity
  8
0
100
AcDbLine
 62
7
  6
CONTINUOUS
 10
1310.8828619588
 20
1146.7180556763
 11
1309.3828619588
 21
1146.7180556763
  0
LINE
  5
2FB
100
AcDbEntity
  8
0
100
AcDbLine
 62
7
  6
CONTINUOUS
 10
1308.7828619588
 20
1149.1680556763
 11
1309.3828619588
 21
1149.1680556763
  0
LINE
  5
2FC
100
AcDbEntity
  8
0
100
AcDbLine
 62
9
  6
CONTINUOUS
 10
1310.8828619588
 20
1152.9680556763
 11
1309.3828619588
 21
1152.9680556763
  0
LINE
  5
2FD
100
AcDbEntity
  8
0
100
AcDbLine
 62
7
  6
CONTINUOUS
 10
1308.7828619588
 20
1156.7680556763
 11
1309.3828619588
 21
1156.7680556763
  0
LINE
  5
2FE
100
AcDbEntity
  8
0
100
AcDbLine
 62
7
  6
CONTINUOUS
 10
1317.8828619588
 20
1164.4680556763
 11
1310.8828619588
 21
1164.4680556763
  0
LINE
  5
2FF
100
AcDbEntity
  8
0
100
AcDbLine
 62
7
  6
CONTINUOUS
 10
1300.8939194591
 20
1168.4757923725
 11
1307.3182557035
 21
1168.4757923725
  0
LINE
  5
300
100
AcDbEntity
  8
0
100
AcDbLine
 62
7
  6
CONTINUOUS
 10
1308.8711699741
 20
1168.4757923725
 11
1310.7604401838
 21
1168.4757923725
  0
LINE
  5
301
100
AcDbEntity
  8
0
100
AcDbLine
 62
7
  6
CONTINUOUS
 10
1300.8939194591
 20
1169.9757923725
 11
1306.9163319148
 21
1169.9757923725
  0
LINE
  5
302
100
AcDbEntity
  8
0
100
AcDbLine
 62
7
  6
CONTINUOUS
 10
1308.4692461854
 20
1169.9757923725
 11
1310.7604401838
 21
1169.9757923725
  0
LINE
  5
303
100
AcDbEntity
  8
0
100
AcDbLine
 62
7
  6
CONTINUOUS
 10
1317.8828619588
 20
1179.4680556763
 11
1310.8828619588
 21
1179.4680556763
  0
LWPOLYLINE
  5
304
100
AcDbEntity
  8
0
100
AcDbPolyline
 62
6
  6
CONTINUOUS
 90
3
 70
0
 10
1266.6965728963
 20
1134.0680556763
 10
1267.0058254049
 20
1134.043971181
 10
1267.3150566318
 20
1133.9654422521
  0
LINE
  5
305
100
AcDbEntity
  8
0
100
AcDbLine
 62
2
  6
CONTINUOUS
 10
923.3828619588
 20
1809.9175009731
 11
920.3828619588
 21
1806.9175009731
  0
LINE
  5
306
100
AcDbEntity
  8
AXIS
100
AcDbLine
 62
7
  6
CONTINUOUS
 10
915.3828619588
 20
1843.4175009731
 11
915.3828619588
 21
1783.4175009731
  0
LINE
  5
307
100
AcDbEntity
  8
AXIS
100
AcDbLine
 62
7
  6
CONTINUOUS
 10
920.3828619588
 20
1843.4175009731
 11
920.3828619588
 21
1783.4175009731
  0
LINE
  5
308
100
AcDbEntity
  8
AXIS
100
AcDbLine
 62
7
  6
CONTINUOUS
 10
930.3828619588
 20
1783.4175009731
 11
930.3828619588
 21
1843.4175009731
  0
LINE
  5
309
100
AcDbEntity
  8
0
100
AcDbLine
 62
2
  6
CONTINUOUS
 10
938.3828619588
 20
1809.9175009731
 11
935.3828619588
 21
1806.9175009731
  0
LINE
  5
30A
100
AcDbEntity
  8
AXIS
100
AcDbLine
 62
7
  6
CONTINUOUS
 10
935.3828619588
 20
1783.4175009731
 11
935.3828619588
 21
1843.4175009731
  0
LINE
  5
30B
100
AcDbEntity
  8
0
100
AcDbLine
 62
7
  6
CONTINUOUS
 10
1284.3828619588
 20
1347.4175009731
 11
1311.7907903407
 21
1347.4175009731
  0
LINE
  5
30C
100
AcDbEntity
  8
0
100
AcDbLine
 62
7
  6
CONTINUOUS
 10
1311.8828655975
 20
1351.9175009731
 11
1309.8828677612
 21
1351.9175009731
  0
LINE
  5
30D
100
AcDbEntity
  8
ROUND
100
AcDbLine
 62
7
  6
CONTINUOUS
 10
1311.8828655975
 20
1351.9175009731
 11
1314.4432424979
 21
1351.9175009731
  0
LINE
  5
30E
100
AcDbEntity
  8
000-SPOJ_MAT
100
AcDbLine
 62
7
  6
CONTINUOUS
 10
1300.1356387085
 20
1352.9175009731
 11
1292.6300852091
 21
1352.9175009731
  0
LINE
  5
30F
100
AcDbEntity
  8
0
100
AcDbLine
 62
7
  6
CONTINUOUS
 10
1309.8828619588
 20
1355.4175009731
 11
1296.3828619588
 21
1355.4175009731
  0
LINE
  5
310
100
AcDbEntity
  8
0
100
AcDbLine
 62
7
  6
CONTINUOUS
 10
1309.8828619588
 20
1363.4175009731
 11
1296.3828619588
 21
1363.4175009731
  0
LINE
  5
311
100
AcDbEntity
  8
000-SPOJ_MAT
100
AcDbLine
 62
7
  6
CONTINUOUS
 10
1292.6300852091
 20
1365.9175009731
 11
1300.1356387085
 21
1365.9175009731
  0
LINE
  5
312
100
AcDbEntity
  8
0
100
AcDbLine
 62
7
  6
CONTINUOUS
 10
1311.8828655975
 20
1366.9175009731
 11
1309.8828677612
 21
1366.9175009731
  0
LINE
  5
313
100
AcDbEntity
  8
ROUND
100
AcDbLine
 62
7
  6
CONTINUOUS
 10
1311.8828655975
 20
1366.9175009731
 11
1314.4432424979
 21
1366.9175009731
  0
LINE
  5
314
100
AcDbEntity
  8
AXIS
100
AcDbLine
 62
7
  6
CONTINUOUS
 10
1311.4961106129
 20
1374.9175009731
 11
1316.2711361105
 21
1374.9175009731
  0
LINE
  5
315
100
AcDbEntity
  8
0
100
AcDbLine
 62
7
  6
CONTINUOUS
 10
1295.8828619588
 20
1861.5743552225
 11
1291.8828619588
 21
1859.9175009731
  0
LINE
  5
316
100
AcDbEntity
  8
0
100
AcDbLine
 62
7
  6
CONTINUOUS
 10
1295.8828619588
 20
1852.2606467236
 11
1299.8828619588
 21
1853.9175009731
  0
LINE
  5
317
100
AcDbEntity
  8
0
100
AcDbLine
 62
7
  6
CONTINUOUS
 10
1332.8828619588
 20
1861.5743552225
 11
1328.8828619588
 21
1859.9175009731
  0
LINE
  5
318
100
AcDbEntity
  8
0
100
AcDbLine
 62
7
  6
CONTINUOUS
 10
1332.8828619588
 20
1852.2606467236
 11
1336.8828619588
 21
1853.9175009731
  0
LINE
  5
319
100
AcDbEntity
  8
0
100
AcDbLine
 62
7
  6
CONTINUOUS
 10
1295.8828619588
 20
1774.5743552225
 11
1291.8828619588
 21
1772.9175009731
  0
LINE
  5
31A
100
AcDbEntity
  8
0
100
AcDbLine
 62
7
  6
CONTINUOUS
 10
1295.8828619588
 20
1765.2606467236
 11
1299.8828619588
 21
1766.9175009731
  0
LINE
  5
31B
100
AcDbEntity
  8
0
100
AcDbLine
 62
7
  6
CONTINUOUS
 10
1332.8828619588
 20
1774.5743552225
 11
1328.8828619588
 21
1772.9175009731
  0
LINE
  5
31C
100
AcDbEntity
  8
0
100
AcDbLine
 62
7
  6
CONTINUOUS
 10
1332.8828619588
 20
1765.2606467236
 11
1336.8828619588
 21
1766.9175009731
  0
LINE
  5
31D
100
AcDbEntity
  8
0
100
AcDbLine
 62
2
  6
CONTINUOUS
 10
923.3828619588
 20
1816.9175009731
 11
920.3828619588
 21
1819.9175009731
  0
LINE
  5
31E
100
AcDbEntity
  8
0
100
AcDbLine
 62
2
  6
CONTINUOUS
 10
938.3828619588
 20
1816.9175009731
 11
935.3828619588
 21
1819.9175009731
  0
LINE
  5
31F
100
AcDbEntity
  8
000-SPOJ_MAT
100
AcDbLine
 62
7
  6
CONTINUOUS
 10
1292.6300852091
 20
1352.9175009731
 11
1288.8773084593
 21
1359.4175009731
  0
LINE
  5
320
100
AcDbEntity
  8
000-SPOJ_MAT
100
AcDbLine
 62
7
  6
CONTINUOUS
 10
1300.1356387085
 20
1365.9175009731
 11
1301.5790143815
 21
1363.4175009731
  0
LINE
  5
321
100
AcDbEntity
  8
AXIS
100
AcDbLine
 62
7
  6
CONTINUOUS
 10
1310.3414100745
 20
1366.9175009731
 11
1308.6093592669
 21
1369.9175009731
  0
LINE
  5
322
100
AcDbEntity
  8
AXIS
100
AcDbLine
 62
7
  6
CONTINUOUS
 10
1264.3828619588
 20
1797.4175009731
 11
1264.3828619588
 21
1757.4175009731
  0
LINE
  5
323
100
AcDbEntity
  8
AXIS
100
AcDbLine
 62
7
  6
CONTINUOUS
 10
1264.3828619588
 20
1829.4175009731
 11
1264.3828619588
 21
1869.4175009731
  0
LINE
  5
324
100
AcDbEntity
  8
0
100
AcDbLine
 62
7
  6
CONTINUOUS
 10
1284.3828619588
 20
1347.4175009731
 11
1284.3828619588
 21
1757.4175009731
  0
LINE
  5
325
100
AcDbEntity
  8
0
100
AcDbLine
 62
7
  6
CONTINUOUS
 10
1284.3828619588
 20
1869.4175009731
 11
1284.3828619588
 21
1929.4175009731
  0
LINE
  5
326
100
AcDbEntity
  8
0
100
AcDbLine
 62
7
  6
CONTINUOUS
 10
1291.8828619588
 20
1859.9175009731
 11
1291.8828619588
 21
1853.9175009731
  0
LINE
  5
327
100
AcDbEntity
  8
0
100
AcDbLine
 62
7
  6
CONTINUOUS
 10
1291.8828619588
 20
1772.9175009731
 11
1291.8828619588
 21
1766.9175009731
  0
LINE
  5
328
100
AcDbEntity
  8
0
100
AcDbLine
 62
7
  6
CONTINUOUS
 10
1299.8828619588
 20
1766.9175009731
 11
1299.8828619588
 21
1772.9175009731
  0
LINE
  5
329
100
AcDbEntity
  8
0
100
AcDbLine
 62
7
  6
CONTINUOUS
 10
1299.8828619588
 20
1853.9175009731
 11
1299.8828619588
 21
1859.9175009731
  0
LINE
  5
32A
100
AcDbEntity
  8
0
100
AcDbLine
 62
7
  6
CONTINUOUS
 10
1309.8828619588
 20
1366.9175009731
 11
1309.8828619588
 21
1351.9175009731
  0
LINE
  5
32B
100
AcDbEntity
  8
0
100
AcDbLine
 62
9
  6
CONTINUOUS
 10
1309.8844686829
 20
1351.9175009731
 11
1309.8844686829
 21
1366.9175009731
  0
LINE
  5
32C
100
AcDbEntity
  8
0
100
AcDbLine
 62
7
  6
CONTINUOUS
 10
1311.3828619588
 20
1369.9175009731
 11
1311.3828619588
 21
1366.9175009731
  0
LINE
  5
32D
100
AcDbEntity
  8
0
100
AcDbLine
 62
7
  6
CONTINUOUS
 10
1311.3828619588
 20
1351.9175009731
 11
1311.3828619588
 21
1348.9175009731
  0
LINE
  5
32E
100
AcDbEntity
  8
0
100
AcDbLine
 62
7
  6
CONTINUOUS
 10
1311.8828655975
 20
1351.9175009731
 11
1311.8828655975
 21
1366.9175009731
  0
LINE
  5
32F
100
AcDbEntity
  8
0
100
AcDbLine
 62
7
  6
CONTINUOUS
 10
1328.8828619588
 20
1859.9175009731
 11
1328.8828619588
 21
1853.9175009731
  0
LINE
  5
330
100
AcDbEntity
  8
0
100
AcDbLine
 62
7
  6
CONTINUOUS
 10
1328.8828619588
 20
1772.9175009731
 11
1328.8828619588
 21
1766.9175009731
  0
LINE
  5
331
100
AcDbEntity
  8
0
100
AcDbLine
 62
7
  6
CONTINUOUS
 10
1336.8828619588
 20
1766.9175009731
 11
1336.8828619588
 21
1772.9175009731
  0
LINE
  5
332
100
AcDbEntity
  8
0
100
AcDbLine
 62
7
  6
CONTINUOUS
 10
1336.8828619588
 20
1853.9175009731
 11
1336.8828619588
 21
1859.9175009731
  0
LINE
  5
333
100
AcDbEntity
  8
0
100
AcDbLine
 62
7
  6
CONTINUOUS
 10
1344.3828619588
 20
1406.428824576
 11
1344.3828619588
 21
1757.4175009731
  0
LINE
  5
334
100
AcDbEntity
  8
0
100
AcDbLine
 62
7
  6
CONTINUOUS
 10
1344.3828619588
 20
1869.4175009731
 11
1344.3828619588
 21
1929.4175009731
  0
LINE
  5
335
100
AcDbEntity
  8
AXIS
100
AcDbLine
 62
7
  6
CONTINUOUS
 10
1364.3828619588
 20
1869.4175009731
 11
1364.3828619588
 21
1829.4175009731
  0
LINE
  5
336
100
AcDbEntity
  8
AXIS
100
AcDbLine
 62
7
  6
CONTINUOUS
 10
1364.3828619588
 20
1757.4175009731
 11
1364.3828619588
 21
1797.4175009731
  0
LINE
  5
337
100
AcDbEntity
  8
0
100
AcDbLine
 62
9
  6
CONTINUOUS
 10
1365.3828619588
 20
1310.9174411936
 11
1365.3828619588
 21
1307.9175607525
  0
LINE
  5
338
100
AcDbEntity
  8
0
100
AcDbLine
 62
9
  6
CONTINUOUS
 10
1365.3828619588
 20
1407.9175607525
 11
1365.3828619588
 21
1410.9174411936
  0
LINE
  5
339
100
AcDbEntity
  8
0
100
AcDbLine
 62
2
  6
CONTINUOUS
 10
1617.3828619588
 20
1816.9175009731
 11
1620.3828619588
 21
1819.9175009731
  0
LINE
  5
33A
100
AcDbEntity
  8
0
100
AcDbLine
 62
2
  6
CONTINUOUS
 10
1632.3828619588
 20
1816.9175009731
 11
1635.3828619588
 21
1819.9175009731
  0
LINE
  5
33B
100
AcDbEntity
  8
000-SPOJ_MAT
100
AcDbLine
 62
7
  6
CONTINUOUS
 10
1288.8773084593
 20
1359.4175009731
 11
1292.6300852091
 21
1365.9175009731
  0
LINE
  5
33C
100
AcDbEntity
  8
AXIS
100
AcDbLine
 62
7
  6
CONTINUOUS
 10
1308.6093592669
 20
1369.9175009731
 11
1311.4961106129
 21
1374.9175009731
  0
LINE
  5
33D
100
AcDbEntity
  8
000-SPOJ_MAT
100
AcDbLine
 62
7
  6
CONTINUOUS
 10
1301.5790143815
 20
1355.4175009731
 11
1300.1356387085
 21
1352.9175009731
  0
LINE
  5
33E
100
AcDbEntity
  8
AXIS
100
AcDbLine
 62
7
  6
CONTINUOUS
 10
1264.3828619588
 20
1757.4175009731
 11
1364.3828619588
 21
1757.4175009731
  0
LINE
  5
33F
100
AcDbEntity
  8
0
100
AcDbLine
 62
7
  6
CONTINUOUS
 10
1291.8828619588
 20
1766.9175009731
 11
1295.8828619588
 21
1765.2606467236
  0
LINE
  5
340
100
AcDbEntity
  8
0
100
AcDbLine
 62
7
  6
CONTINUOUS
 10
1299.8828619588
 20
1772.9175009731
 11
1295.8828619588
 21
1774.5743552225
  0
LINE
  5
341
100
AcDbEntity
  8
0
100
AcDbLine
 62
7
  6
CONTINUOUS
 10
1328.8828619588
 20
1766.9175009731
 11
1332.8828619588
 21
1765.2606467236
  0
LINE
  5
342
100
AcDbEntity
  8
0
100
AcDbLine
 62
7
  6
CONTINUOUS
 10
1635.3828619588
 20
1783.4175009731
 11
1625.3828619588
 21
1783.4175009731
  0
LINE
  5
343
100
AcDbEntity
  8
AXIS
100
AcDbLine
 62
7
  6
CONTINUOUS
 10
1625.3828619588
 20
1783.4175009731
 11
1620.3828619588
 21
1783.4175009731
  0
LINE
  5
344
100
AcDbEntity
  8
0
100
AcDbLine
 62
7
  6
CONTINUOUS
 10
1620.3828619588
 20
1783.4175009731
 11
1364.3828619588
 21
1783.4175009731
  0
LINE
  5
345
100
AcDbEntity
  8
0
100
AcDbLine
 62
7
  6
CONTINUOUS
 10
1264.3828619588
 20
1783.4175009731
 11
935.3828619588
 21
1783.4175009731
  0
LINE
  5
346
100
AcDbEntity
  8
AXIS
100
AcDbLine
 62
7
  6
CONTINUOUS
 10
935.3828619588
 20
1783.4175009731
 11
930.3828619588
 21
1783.4175009731
  0
LINE
  5
347
100
AcDbEntity
  8
0
100
AcDbLine
 62
7
  6
CONTINUOUS
 10
930.3828619588
 20
1783.4175009731
 11
920.3828619588
 21
1783.4175009731
  0
LINE
  5
348
100
AcDbEntity
  8
AXIS
100
AcDbLine
 62
7
  6
CONTINUOUS
 10
915.3828619588
 20
1783.4175009731
 11
920.3828619588
 21
1783.4175009731
  0
LINE
  5
349
100
AcDbEntity
  8
AXIS
100
AcDbLine
 62
7
  6
CONTINUOUS
 10
1635.3828619588
 20
1783.4175009731
 11
1640.3828619588
 21
1783.4175009731
  0
LINE
  5
34A
100
AcDbEntity
  8
AXIS
100
AcDbLine
 62
7
  6
CONTINUOUS
 10
1364.3828619588
 20
1797.4175009731
 11
1264.3828619588
 21
1797.4175009731
  0
LINE
  5
34B
100
AcDbEntity
  8
0
100
AcDbLine
 62
7
  6
CONTINUOUS
 10
1635.3828619588
 20
1809.9175009731
 11
1625.3828619588
 21
1809.9175009731
  0
LINE
  5
34C
100
AcDbEntity
  8
0
100
AcDbLine
 62
7
  6
CONTINUOUS
 10
1620.3828619588
 20
1809.9175009731
 11
935.3828619588
 21
1809.9175009731
  0
LINE
  5
34D
100
AcDbEntity
  8
0
100
AcDbLine
 62
7
  6
CONTINUOUS
 10
930.3828619588
 20
1809.9175009731
 11
920.3828619588
 21
1809.9175009731
  0
LINE
  5
34E
100
AcDbEntity
  8
0
100
AcDbLine
 62
7
  6
CONTINUOUS
 10
1336.8828619588
 20
1772.9175009731
 11
1332.8828619588
 21
1774.5743552225
  0
LINE
  5
34F
100
AcDbEntity
  8
0
100
AcDbLine
 62
7
  6
CONTINUOUS
 10
1635.3828619588
 20
1816.9175009731
 11
1625.3828619588
 21
1816.9175009731
  0
LINE
  5
350
100
AcDbEntity
  8
0
100
AcDbLine
 62
7
  6
CONTINUOUS
 10
1620.3828619588
 20
1816.9175009731
 11
935.3828619588
 21
1816.9175009731
  0
LINE
  5
351
100
AcDbEntity
  8
0
100
AcDbLine
 62
7
  6
CONTINUOUS
 10
930.3828619588
 20
1816.9175009731
 11
920.3828619588
 21
1816.9175009731
  0
LINE
  5
352
100
AcDbEntity
  8
AXIS
100
AcDbLine
 62
7
  6
CONTINUOUS
 10
1364.3828619588
 20
1829.4175009731
 11
1264.3828619588
 21
1829.4175009731
  0
LINE
  5
353
100
AcDbEntity
  8
0
100
AcDbLine
 62
7
  6
CONTINUOUS
 10
1635.3828619588
 20
1843.4175009731
 11
1625.3828619588
 21
1843.4175009731
  0
LINE
  5
354
100
AcDbEntity
  8
AXIS
100
AcDbLine
 62
7
  6
CONTINUOUS
 10
1625.3828619588
 20
1843.4175009731
 11
1620.3828619588
 21
1843.4175009731
  0
LINE
  5
355
100
AcDbEntity
  8
0
100
AcDbLine
 62
7
  6
CONTINUOUS
 10
1620.3828619588
 20
1843.4175009731
 11
1364.3828619588
 21
1843.4175009731
  0
LINE
  5
356
100
AcDbEntity
  8
0
100
AcDbLine
 62
7
  6
CONTINUOUS
 10
1264.3828619588
 20
1843.4175009731
 11
935.3828619588
 21
1843.4175009731
  0
LINE
  5
357
100
AcDbEntity
  8
AXIS
100
AcDbLine
 62
7
  6
CONTINUOUS
 10
935.3828619588
 20
1843.4175009731
 11
930.3828619588
 21
1843.4175009731
  0
LINE
  5
358
100
AcDbEntity
  8
0
100
AcDbLine
 62
7
  6
CONTINUOUS
 10
930.3828619588
 20
1843.4175009731
 11
920.3828619588
 21
1843.4175009731
  0
LINE
  5
359
100
AcDbEntity
  8
AXIS
100
AcDbLine
 62
7
  6
CONTINUOUS
 10
915.3828619588
 20
1843.4175009731
 11
920.3828619588
 21
1843.4175009731
  0
LINE
  5
35A
100
AcDbEntity
  8
AXIS
100
AcDbLine
 62
7
  6
CONTINUOUS
 10
1635.3828619588
 20
1843.4175009731
 11
1640.3828619588
 21
1843.4175009731
  0
LINE
  5
35B
100
AcDbEntity
  8
0
100
AcDbLine
 62
7
  6
CONTINUOUS
 10
1291.8828619588
 20
1853.9175009731
 11
1295.8828619588
 21
1852.2606467236
  0
LINE
  5
35C
100
AcDbEntity
  8
AXIS
100
AcDbLine
 62
7
  6
CONTINUOUS
 10
1264.3828619588
 20
1869.4175009731
 11
1364.3828619588
 21
1869.4175009731
  0
LINE
  5
35D
100
AcDbEntity
  8
0
100
AcDbLine
 62
7
  6
CONTINUOUS
 10
1299.8828619588
 20
1859.9175009731
 11
1295.8828619588
 21
1861.5743552225
  0
LINE
  5
35E
100
AcDbEntity
  8
0
100
AcDbLine
 62
7
  6
CONTINUOUS
 10
1328.8828619588
 20
1853.9175009731
 11
1332.8828619588
 21
1852.2606467236
  0
LINE
  5
35F
100
AcDbEntity
  8
0
100
AcDbLine
 62
7
  6
CONTINUOUS
 10
1336.8828619588
 20
1859.9175009731
 11
1332.8828619588
 21
1861.5743552225
  0
LINE
  5
360
100
AcDbEntity
  8
0
100
AcDbLine
 62
7
  6
CONTINUOUS
 10
1284.3828619588
 20
1929.4175009731
 11
1344.3828619588
 21
1929.4175009731
  0
LINE
  5
361
100
AcDbEntity
  8
AXIS
100
AcDbLine
 62
7
  6
CONTINUOUS
 10
1620.3828619588
 20
1783.4175009731
 11
1620.3828619588
 21
1843.4175009731
  0
LINE
  5
362
100
AcDbEntity
  8
AXIS
100
AcDbLine
 62
7
  6
CONTINUOUS
 10
1625.3828619588
 20
1783.4175009731
 11
1625.3828619588
 21
1843.4175009731
  0
LINE
  5
363
100
AcDbEntity
  8
AXIS
100
AcDbLine
 62
7
  6
CONTINUOUS
 10
1635.3828619588
 20
1843.4175009731
 11
1635.3828619588
 21
1783.4175009731
  0
LINE
  5
364
100
AcDbEntity
  8
AXIS
100
AcDbLine
 62
7
  6
CONTINUOUS
 10
1640.3828619588
 20
1843.4175009731
 11
1640.3828619588
 21
1783.4175009731
  0
LINE
  5
365
100
AcDbEntity
  8
0
100
AcDbLine
 62
2
  6
CONTINUOUS
 10
1617.3828619588
 20
1809.9175009731
 11
1620.3828619588
 21
1806.9175009731
  0
LINE
  5
366
100
AcDbEntity
  8
0
100
AcDbLine
 62
2
  6
CONTINUOUS
 10
1635.3828619588
 20
1806.9175009731
 11
1632.3828619588
 21
1809.9175009731
  0
LINE
  5
367
100
AcDbEntity
  8
0
100
AcDbLine
 62
2
  6
CONTINUOUS
 10
923.3828619588
 20
603.2540695091
 11
920.3828619588
 21
600.2540695091
  0
LINE
  5
368
100
AcDbEntity
  8
AXIS
100
AcDbLine
 62
7
  6
CONTINUOUS
 10
915.3828619588
 20
636.7540695091
 11
915.3828619588
 21
576.7540695091
  0
LINE
  5
369
100
AcDbEntity
  8
AXIS
100
AcDbLine
 62
7
  6
CONTINUOUS
 10
920.3828619588
 20
636.7540695091
 11
920.3828619588
 21
576.7540695091
  0
LINE
  5
36A
100
AcDbEntity
  8
AXIS
100
AcDbLine
 62
7
  6
CONTINUOUS
 10
930.3828619588
 20
576.7540695091
 11
930.3828619588
 21
636.7540695091
  0
LINE
  5
36B
100
AcDbEntity
  8
0
100
AcDbLine
 62
2
  6
CONTINUOUS
 10
938.3828619588
 20
603.2540695091
 11
935.3828619588
 21
600.2540695091
  0
LINE
  5
36C
100
AcDbEntity
  8
AXIS
100
AcDbLine
 62
7
  6
CONTINUOUS
 10
935.3828619588
 20
576.7540695091
 11
935.3828619588
 21
636.7540695091
  0
LINE
  5
36D
100
AcDbEntity
  8
0
100
AcDbLine
 62
7
  6
CONTINUOUS
 10
1284.3828619588
 20
140.7540695091
 11
1311.7907903407
 21
140.7540695091
  0
LINE
  5
36E
100
AcDbEntity
  8
0
100
AcDbLine
 62
7
  6
CONTINUOUS
 10
1311.8828655975
 20
145.2540695091
 11
1309.8828677612
 21
145.2540695091
  0
LINE
  5
36F
100
AcDbEntity
  8
ROUND
100
AcDbLine
 62
7
  6
CONTINUOUS
 10
1311.8828655975
 20
145.2540695091
 11
1314.4432424979
 21
145.2540695091
  0
LINE
  5
370
100
AcDbEntity
  8
000-SPOJ_MAT
100
AcDbLine
 62
7
  6
CONTINUOUS
 10
1300.1356387085
 20
146.2540695091
 11
1292.6300852091
 21
146.2540695091
  0
LINE
  5
371
100
AcDbEntity
  8
0
100
AcDbLine
 62
7
  6
CONTINUOUS
 10
1309.8828619588
 20
148.7540695091
 11
1296.3828619588
 21
148.7540695091
  0
LINE
  5
372
100
AcDbEntity
  8
0
100
AcDbLine
 62
7
  6
CONTINUOUS
 10
1309.8828619588
 20
156.7540695091
 11
1296.3828619588
 21
156.7540695091
  0
LINE
  5
373
100
AcDbEntity
  8
000-SPOJ_MAT
100
AcDbLine
 62
7
  6
CONTINUOUS
 10
1292.6300852091
 20
159.2540695091
 11
1300.1356387085
 21
159.2540695091
  0
LINE
  5
374
100
AcDbEntity
  8
0
100
AcDbLine
 62
7
  6
CONTINUOUS
 10
1311.8828655975
 20
160.2540695091
 11
1309.8828677612
 21
160.2540695091
  0
LINE
  5
375
100
AcDbEntity
  8
ROUND
100
AcDbLine
 62
7
  6
CONTINUOUS
 10
1311.8828655975
 20
160.2540695091
 11
1314.4432424979
 21
160.2540695091
  0
LINE
  5
376
100
AcDbEntity
  8
AXIS
100
AcDbLine
 62
7
  6
CONTINUOUS
 10
1311.4961106129
 20
168.2540695091
 11
1316.2711361105
 21
168.2540695091
  0
LINE
  5
377
100
AcDbEntity
  8
0
100
AcDbLine
 62
7
  6
CONTINUOUS
 10
1295.8828619588
 20
654.9109237586
 11
1291.8828619588
 21
653.2540695091
  0
LINE
  5
378
100
AcDbEntity
  8
0
100
AcDbLine
 62
7
  6
CONTINUOUS
 10
1295.8828619588
 20
645.5972152596
 11
1299.8828619588
 21
647.2540695091
  0
LINE
  5
379
100
AcDbEntity
  8
0
100
AcDbLine
 62
7
  6
CONTINUOUS
 10
1332.8828619588
 20
654.9109237586
 11
1328.8828619588
 21
653.2540695091
  0
LINE
  5
37A
100
AcDbEntity
  8
0
100
AcDbLine
 62
7
  6
CONTINUOUS
 10
1332.8828619588
 20
645.5972152596
 11
1336.8828619588
 21
647.2540695091
  0
LINE
  5
37B
100
AcDbEntity
  8
0
100
AcDbLine
 62
7
  6
CONTINUOUS
 10
1295.8828619588
 20
567.9109237586
 11
1291.8828619588
 21
566.2540695091
  0
LINE
  5
37C
100
AcDbEntity
  8
0
100
AcDbLine
 62
7
  6
CONTINUOUS
 10
1295.8828619588
 20
558.5972152596
 11
1299.8828619588
 21
560.2540695091
  0
LINE
  5
37D
100
AcDbEntity
  8
0
100
AcDbLine
 62
7
  6
CONTINUOUS
 10
1332.8828619588
 20
567.9109237586
 11
1328.8828619588
 21
566.2540695091
  0
LINE
  5
37E
100
AcDbEntity
  8
0
100
AcDbLine
 62
7
  6
CONTINUOUS
 10
1332.8828619588
 20
558.5972152596
 11
1336.8828619588
 21
560.2540695091
  0
LINE
  5
37F
100
AcDbEntity
  8
0
100
AcDbLine
 62
2
  6
CONTINUOUS
 10
923.3828619588
 20
610.2540695091
 11
920.3828619588
 21
613.2540695091
  0
LINE
  5
380
100
AcDbEntity
  8
0
100
AcDbLine
 62
2
  6
CONTINUOUS
 10
938.3828619588
 20
610.2540695091
 11
935.3828619588
 21
613.2540695091
  0
LINE
  5
381
100
AcDbEntity
  8
000-SPOJ_MAT
100
AcDbLine
 62
7
  6
CONTINUOUS
 10
1292.6300852091
 20
146.2540695091
 11
1288.8773084593
 21
152.7540695091
  0
LINE
  5
382
100
AcDbEntity
  8
000-SPOJ_MAT
100
AcDbLine
 62
7
  6
CONTINUOUS
 10
1300.1356387085
 20
159.2540695091
 11
1301.5790143815
 21
156.7540695091
  0
LINE
  5
383
100
AcDbEntity
  8
AXIS
100
AcDbLine
 62
7
  6
CONTINUOUS
 10
1310.3414100745
 20
160.2540695091
 11
1308.6093592669
 21
163.2540695091
  0
LINE
  5
384
100
AcDbEntity
  8
AXIS
100
AcDbLine
 62
7
  6
CONTINUOUS
 10
1264.3828619588
 20
590.7540695091
 11
1264.3828619588
 21
550.7540695091
  0
LINE
  5
385
100
AcDbEntity
  8
AXIS
100
AcDbLine
 62
7
  6
CONTINUOUS
 10
1264.3828619588
 20
622.7540695091
 11
1264.3828619588
 21
662.7540695091
  0
LINE
  5
386
100
AcDbEntity
  8
0
100
AcDbLine
 62
7
  6
CONTINUOUS
 10
1284.3828619588
 20
140.7540695091
 11
1284.3828619588
 21
550.7540695091
  0
LINE
  5
387
100
AcDbEntity
  8
0
100
AcDbLine
 62
7
  6
CONTINUOUS
 10
1284.3828619588
 20
662.7540695091
 11
1284.3828619588
 21
722.7540695091
  0
LINE
  5
388
100
AcDbEntity
  8
0
100
AcDbLine
 62
7
  6
CONTINUOUS
 10
1291.8828619588
 20
653.2540695091
 11
1291.8828619588
 21
647.2540695091
  0
LINE
  5
389
100
AcDbEntity
  8
0
100
AcDbLine
 62
7
  6
CONTINUOUS
 10
1291.8828619588
 20
566.2540695091
 11
1291.8828619588
 21
560.2540695091
  0
LINE
  5
38A
100
AcDbEntity
  8
0
100
AcDbLine
 62
7
  6
CONTINUOUS
 10
1299.8828619588
 20
560.2540695091
 11
1299.8828619588
 21
566.2540695091
  0
LINE
  5
38B
100
AcDbEntity
  8
0
100
AcDbLine
 62
7
  6
CONTINUOUS
 10
1299.8828619588
 20
647.2540695091
 11
1299.8828619588
 21
653.2540695091
  0
LINE
  5
38C
100
AcDbEntity
  8
0
100
AcDbLine
 62
7
  6
CONTINUOUS
 10
1309.8828619588
 20
160.2540695091
 11
1309.8828619588
 21
145.2540695091
  0
LINE
  5
38D
100
AcDbEntity
  8
0
100
AcDbLine
 62
9
  6
CONTINUOUS
 10
1309.8844686829
 20
145.2540695091
 11
1309.8844686829
 21
160.2540695091
  0
LINE
  5
38E
100
AcDbEntity
  8
0
100
AcDbLine
 62
7
  6
CONTINUOUS
 10
1311.3828619588
 20
163.2540695091
 11
1311.3828619588
 21
160.2540695091
  0
LINE
  5
38F
100
AcDbEntity
  8
0
100
AcDbLine
 62
7
  6
CONTINUOUS
 10
1311.3828619588
 20
145.2540695091
 11
1311.3828619588
 21
142.2540695091
  0
LINE
  5
390
100
AcDbEntity
  8
0
100
AcDbLine
 62
7
  6
CONTINUOUS
 10
1311.8828655975
 20
145.2540695091
 11
1311.8828655975
 21
160.2540695091
  0
LINE
  5
391
100
AcDbEntity
  8
0
100
AcDbLine
 62
7
  6
CONTINUOUS
 10
1328.8828619588
 20
653.2540695091
 11
1328.8828619588
 21
647.2540695091
  0
LINE
  5
392
100
AcDbEntity
  8
0
100
AcDbLine
 62
7
  6
CONTINUOUS
 10
1328.8828619588
 20
566.2540695091
 11
1328.8828619588
 21
560.2540695091
  0
LINE
  5
393
100
AcDbEntity
  8
0
100
AcDbLine
 62
7
  6
CONTINUOUS
 10
1336.8828619588
 20
560.2540695091
 11
1336.8828619588
 21
566.2540695091
  0
LINE
  5
394
100
AcDbEntity
  8
0
100
AcDbLine
 62
7
  6
CONTINUOUS
 10
1336.8828619588
 20
647.2540695091
 11
1336.8828619588
 21
653.2540695091
  0
LINE
  5
395
100
AcDbEntity
  8
0
100
AcDbLine
 62
7
  6
CONTINUOUS
 10
1344.3828619588
 20
199.765393112
 11
1344.3828619588
 21
550.7540695091
  0
LINE
  5
396
100
AcDbEntity
  8
0
100
AcDbLine
 62
7
  6
CONTINUOUS
 10
1344.3828619588
 20
662.7540695091
 11
1344.3828619588
 21
722.7540695091
  0
LINE
  5
397
100
AcDbEntity
  8
AXIS
100
AcDbLine
 62
7
  6
CONTINUOUS
 10
1364.3828619588
 20
662.7540695091
 11
1364.3828619588
 21
622.7540695091
  0
LINE
  5
398
100
AcDbEntity
  8
AXIS
100
AcDbLine
 62
7
  6
CONTINUOUS
 10
1364.3828619588
 20
550.7540695091
 11
1364.3828619588
 21
590.7540695091
  0
LINE
  5
399
100
AcDbEntity
  8
0
100
AcDbLine
 62
9
  6
CONTINUOUS
 10
1365.3828619588
 20
104.2540097297
 11
1365.3828619588
 21
101.2541292885
  0
LINE
  5
39A
100
AcDbEntity
  8
0
100
AcDbLine
 62
9
  6
CONTINUOUS
 10
1365.3828619588
 20
201.2541292885
 11
1365.3828619588
 21
204.2540097297
  0
LINE
  5
39B
100
AcDbEntity
  8
0
100
AcDbLine
 62
2
  6
CONTINUOUS
 10
1617.3828619588
 20
610.2540695091
 11
1620.3828619588
 21
613.2540695091
  0
LINE
  5
39C
100
AcDbEntity
  8
0
100
AcDbLine
 62
2
  6
CONTINUOUS
 10
1632.3828619588
 20
610.2540695091
 11
1635.3828619588
 21
613.2540695091
  0
LINE
  5
39D
100
AcDbEntity
  8
000-SPOJ_MAT
100
AcDbLine
 62
7
  6
CONTINUOUS
 10
1288.8773084593
 20
152.7540695091
 11
1292.6300852091
 21
159.2540695091
  0
LINE
  5
39E
100
AcDbEntity
  8
AXIS
100
AcDbLine
 62
7
  6
CONTINUOUS
 10
1308.6093592669
 20
163.2540695091
 11
1311.4961106129
 21
168.2540695091
  0
LINE
  5
39F
100
AcDbEntity
  8
000-SPOJ_MAT
100
AcDbLine
 62
7
  6
CONTINUOUS
 10
1301.5790143815
 20
148.7540695091
 11
1300.1356387085
 21
146.2540695091
  0
LINE
  5
3A0
100
AcDbEntity
  8
AXIS
100
AcDbLine
 62
7
  6
CONTINUOUS
 10
1264.3828619588
 20
550.7540695091
 11
1364.3828619588
 21
550.7540695091
  0
LINE
  5
3A1
100
AcDbEntity
  8
0
100
AcDbLine
 62
7
  6
CONTINUOUS
 10
1291.8828619588
 20
560.2540695091
 11
1295.8828619588
 21
558.5972152596
  0
LINE
  5
3A2
100
AcDbEntity
  8
0
100
AcDbLine
 62
7
  6
CONTINUOUS
 10
1299.8828619588
 20
566.2540695091
 11
1295.8828619588
 21
567.9109237586
  0
LINE
  5
3A3
100
AcDbEntity
  8
0
100
AcDbLine
 62
7
  6
CONTINUOUS
 10
1328.8828619588
 20
560.2540695091
 11
1332.8828619588
 21
558.5972152596
  0
LINE
  5
3A4
100
AcDbEntity
  8
0
100
AcDbLine
 62
7
  6
CONTINUOUS
 10
1635.3828619588
 20
576.7540695091
 11
1625.3828619588
 21
576.7540695091
  0
LINE
  5
3A5
100
AcDbEntity
  8
AXIS
100
AcDbLine
 62
7
  6
CONTINUOUS
 10
1625.3828619588
 20
576.7540695091
 11
1620.3828619588
 21
576.7540695091
  0
LINE
  5
3A6
100
AcDbEntity
  8
0
100
AcDbLine
 62
7
  6
CONTINUOUS
 10
1620.3828619588
 20
576.7540695091
 11
1364.3828619588
 21
576.7540695091
  0
LINE
  5
3A7
100
AcDbEntity
  8
0
100
AcDbLine
 62
7
  6
CONTINUOUS
 10
1264.3828619588
 20
576.7540695091
 11
935.3828619588
 21
576.7540695091
  0
LINE
  5
3A8
100
AcDbEntity
  8
AXIS
100
AcDbLine
 62
7
  6
CONTINUOUS
 10
935.3828619588
 20
576.7540695091
 11
930.3828619588
 21
576.7540695091
  0
LINE
  5
3A9
100
AcDbEntity
  8
0
100
AcDbLine
 62
7
  6
CONTINUOUS
 10
930.3828619588
 20
576.7540695091
 11
920.3828619588
 21
576.7540695091
  0
LINE
  5
3AA
100
AcDbEntity
  8
AXIS
100
AcDbLine
 62
7
  6
CONTINUOUS
 10
915.3828619588
 20
576.7540695091
 11
920.3828619588
 21
576.7540695091
  0
LINE
  5
3AB
100
AcDbEntity
  8
AXIS
100
AcDbLine
 62
7
  6
CONTINUOUS
 10
1635.3828619588
 20
576.7540695091
 11
1640.3828619588
 21
576.7540695091
  0
LINE
  5
3AC
100
AcDbEntity
  8
AXIS
100
AcDbLine
 62
7
  6
CONTINUOUS
 10
1364.3828619588
 20
590.7540695091
 11
1264.3828619588
 21
590.7540695091
  0
LINE
  5
3AD
100
AcDbEntity
  8
0
100
AcDbLine
 62
7
  6
CONTINUOUS
 10
1635.3828619588
 20
603.2540695091
 11
1625.3828619588
 21
603.2540695091
  0
LINE
  5
3AE
100
AcDbEntity
  8
0
100
AcDbLine
 62
7
  6
CONTINUOUS
 10
1620.3828619588
 20
603.2540695091
 11
935.3828619588
 21
603.2540695091
  0
LINE
  5
3AF
100
AcDbEntity
  8
0
100
AcDbLine
 62
7
  6
CONTINUOUS
 10
930.3828619588
 20
603.2540695091
 11
920.3828619588
 21
603.2540695091
  0
LINE
  5
3B0
100
AcDbEntity
  8
0
100
AcDbLine
 62
7
  6
CONTINUOUS
 10
1336.8828619588
 20
566.2540695091
 11
1332.8828619588
 21
567.9109237586
  0
LINE
  5
3B1
100
AcDbEntity
  8
0
100
AcDbLine
 62
7
  6
CONTINUOUS
 10
1635.3828619588
 20
610.2540695091
 11
1625.3828619588
 21
610.2540695091
  0
LINE
  5
3B2
100
AcDbEntity
  8
0
100
AcDbLine
 62
7
  6
CONTINUOUS
 10
1620.3828619588
 20
610.2540695091
 11
935.3828619588
 21
610.2540695091
  0
LINE
  5
3B3
100
AcDbEntity
  8
0
100
AcDbLine
 62
7
  6
CONTINUOUS
 10
930.3828619588
 20
610.2540695091
 11
920.3828619588
 21
610.2540695091
  0
LINE
  5
3B4
100
AcDbEntity
  8
AXIS
100
AcDbLine
 62
7
  6
CONTINUOUS
 10
1364.3828619588
 20
622.7540695091
 11
1264.3828619588
 21
622.7540695091
  0
LINE
  5
3B5
100
AcDbEntity
  8
0
100
AcDbLine
 62
7
  6
CONTINUOUS
 10
1635.3828619588
 20
636.7540695091
 11
1625.3828619588
 21
636.7540695091
  0
LINE
  5
3B6
100
AcDbEntity
  8
AXIS
100
AcDbLine
 62
7
  6
CONTINUOUS
 10
1625.3828619588
 20
636.7540695091
 11
1620.3828619588
 21
636.7540695091
  0
LINE
  5
3B7
100
AcDbEntity
  8
0
100
AcDbLine
 62
7
  6
CONTINUOUS
 10
1620.3828619588
 20
636.7540695091
 11
1364.3828619588
 21
636.7540695091
  0
LINE
  5
3B8
100
AcDbEntity
  8
0
100
AcDbLine
 62
7
  6
CONTINUOUS
 10
1264.3828619588
 20
636.7540695091
 11
935.3828619588
 21
636.7540695091
  0
LINE
  5
3B9
100
AcDbEntity
  8
AXIS
100
AcDbLine
 62
7
  6
CONTINUOUS
 10
935.3828619588
 20
636.7540695091
 11
930.3828619588
 21
636.7540695091
  0
LINE
  5
3BA
100
AcDbEntity
  8
0
100
AcDbLine
 62
7
  6
CONTINUOUS
 10
930.3828619588
 20
636.7540695091
 11
920.3828619588
 21
636.7540695091
  0
LINE
  5
3BB
100
AcDbEntity
  8
AXIS
100
AcDbLine
 62
7
  6
CONTINUOUS
 10
915.3828619588
 20
636.7540695091
 11
920.3828619588
 21
636.7540695091
  0
LINE
  5
3BC
100
AcDbEntity
  8
AXIS
100
AcDbLine
 62
7
  6
CONTINUOUS
 10
1635.3828619588
 20
636.7540695091
 11
1640.3828619588
 21
636.7540695091
  0
LINE
  5
3BD
100
AcDbEntity
  8
0
100
AcDbLine
 62
7
  6
CONTINUOUS
 10
1291.8828619588
 20
647.2540695091
 11
1295.8828619588
 21
645.5972152596
  0
LINE
  5
3BE
100
AcDbEntity
  8
AXIS
100
AcDbLine
 62
7
  6
CONTINUOUS
 10
1264.3828619588
 20
662.7540695091
 11
1364.3828619588
 21
662.7540695091
  0
LINE
  5
3BF
100
AcDbEntity
  8
0
100
AcDbLine
 62
7
  6
CONTINUOUS
 10
1299.8828619588
 20
653.2540695091
 11
1295.8828619588
 21
654.9109237586
  0
LINE
  5
3C0
100
AcDbEntity
  8
0
100
AcDbLine
 62
7
  6
CONTINUOUS
 10
1328.8828619588
 20
647.2540695091
 11
1332.8828619588
 21
645.5972152596
  0
LINE
  5
3C1
100
AcDbEntity
  8
0
100
AcDbLine
 62
7
  6
CONTINUOUS
 10
1336.8828619588
 20
653.2540695091
 11
1332.8828619588
 21
654.9109237586
  0
LINE
  5
3C2
100
AcDbEntity
  8
0
100
AcDbLine
 62
7
  6
CONTINUOUS
 10
1284.3828619588
 20
722.7540695091
 11
1344.3828619588
 21
722.7540695091
  0
LINE
  5
3C3
100
AcDbEntity
  8
AXIS
100
AcDbLine
 62
7
  6
CONTINUOUS
 10
1620.3828619588
 20
576.7540695091
 11
1620.3828619588
 21
636.7540695091
  0
LINE
  5
3C4
100
AcDbEntity
  8
AXIS
100
AcDbLine
 62
7
  6
CONTINUOUS
 10
1625.3828619588
 20
576.7540695091
 11
1625.3828619588
 21
636.7540695091
  0
LINE
  5
3C5
100
AcDbEntity
  8
AXIS
100
AcDbLine
 62
7
  6
CONTINUOUS
 10
1635.3828619588
 20
636.7540695091
 11
1635.3828619588
 21
576.7540695091
  0
LINE
  5
3C6
100
AcDbEntity
  8
AXIS
100
AcDbLine
 62
7
  6
CONTINUOUS
 10
1640.3828619588
 20
636.7540695091
 11
1640.3828619588
 21
576.7540695091
  0
LINE
  5
3C7
100
AcDbEntity
  8
0
100
AcDbLine
 62
2
  6
CONTINUOUS
 10
1617.3828619588
 20
603.2540695091
 11
1620.3828619588
 21
600.2540695091
  0
LINE
  5
3C8
100
AcDbEntity
  8
0
100
AcDbLine
 62
2
  6
CONTINUOUS
 10
1635.3828619588
 20
600.2540695091
 11
1632.3828619588
 21
603.2540695091
  0
LINE
  5
3C9
100
AcDbEntity
  8
0
100
AcDbLine
 62
7
  6
CONTINUOUS
 10
135.7163305497
 20
1179.4680556763
 11
120.7163305497
 21
1164.4680556763
  0
LINE
  5
3CA
100
AcDbEntity
  8
000-SPOJ_MAT
100
AcDbLine
 62
7
  6
CONTINUOUS
 10
185.2113052965
 20
1134.8680556763
 11
183.4013759735
 21
1133.0581263532
  0
LINE
  5
3CB
100
AcDbEntity
  8
000-SPOJ_MAT
100
AcDbLine
 62
7
  6
CONTINUOUS
 10
203.0312851259
 20
1128.2779849994
 11
201.2213558029
 21
1126.4680556763
  0
LINE
  5
3CC
100
AcDbEntity
  8
000-SPOJ_MAT
100
AcDbLine
 62
7
  6
CONTINUOUS
 10
272.2113052965
 20
1134.8680556763
 11
270.4013759735
 21
1133.0581263532
  0
LINE
  5
3CD
100
AcDbEntity
  8
000-SPOJ_MAT
100
AcDbLine
 62
7
  6
CONTINUOUS
 10
290.0312851259
 20
1128.2779849994
 11
288.2213558029
 21
1126.4680556763
  0
LINE
  5
3CE
100
AcDbEntity
  8
0
100
AcDbLine
 62
7
  6
CONTINUOUS
 10
665.4927434571
 20
1038.1934805357
 11
646.3328558555
 21
1031.9680556763
  0
LINE
  5
3CF
100
AcDbEntity
  8
0
100
AcDbLine
 62
7
  6
CONTINUOUS
 10
687.5163305497
 20
1136.4680556763
 11
686.7163305497
 21
1135.6680556763
  0
LINE
  5
3D0
100
AcDbEntity
  8
000-SPOJ_MAT
100
AcDbLine
 62
7
  6
CONTINUOUS
 10
684.2163305497
 20
1132.8437916076
 11
684.6405946184
 21
1133.2680556763
  0
LINE
  5
3D1
100
AcDbEntity
  8
000-SPOJ_MAT
100
AcDbLine
 62
7
  6
CONTINUOUS
 10
684.2163305497
 20
1119.0437916076
 11
684.6405946184
 21
1119.4680556763
  0
LINE
  5
3D2
100
AcDbEntity
  8
000-SPOJ_MAT
100
AcDbLine
 62
7
  6
CONTINUOUS
 10
697.2163305497
 20
1126.892319745
 11
696.792066481
 21
1126.4680556763
  0
LINE
  5
3D3
100
AcDbEntity
  8
000-SPOJ_MAT
100
AcDbLine
 62
7
  6
CONTINUOUS
 10
697.2163305497
 20
1113.092319745
 11
696.792066481
 21
1112.6680556763
  0
LINE
  5
3D4
100
AcDbEntity
  8
0
100
AcDbLine
 62
7
  6
CONTINUOUS
 10
120.7163305497
 20
1119.4680556763
 11
120.7163305497
 21
1164.4680556763
  0
LINE
  5
3D5
100
AcDbEntity
  8
AXIS
100
AcDbLine
 62
7
  6
CONTINUOUS
 10
180.7163305497
 20
1100.6680556763
 11
180.7163305497
 21
1119.4680556763
  0
LINE
  5
3D6
100
AcDbEntity
  8
000-SPOJ_MAT
100
AcDbLine
 62
7
  6
CONTINUOUS
 10
183.4013759735
 20
1128.2779849994
 11
183.4013759735
 21
1133.0581263532
  0
LINE
  5
3D7
100
AcDbEntity
  8
000-SPOJ_MAT
100
AcDbLine
 62
7
  6
CONTINUOUS
 10
185.2113052965
 20
1135.6680556763
 11
185.2113052965
 21
1134.8680556763
  0
LINE
  5
3D8
100
AcDbEntity
  8
0
100
AcDbLine
 62
7
  6
CONTINUOUS
 10
185.2163305497
 20
1100.6680556763
 11
185.2163305497
 21
1090.6680556763
  0
LINE
  5
3D9
100
AcDbEntity
  8
0
100
AcDbLine
 62
7
  6
CONTINUOUS
 10
188.2163305497
 20
1140.6680556763
 11
188.2163305497
 21
1136.4680556763
  0
LINE
  5
3DA
100
AcDbEntity
  8
000-SPOJ_MAT
100
AcDbLine
 62
7
  6
CONTINUOUS
 10
188.3088532616
 20
1128.2779849994
 11
188.3088532616
 21
1133.0581263532
  0
LINE
  5
3DB
100
AcDbEntity
  8
000-SPOJ_MAT
100
AcDbLine
 62
7
  6
CONTINUOUS
 10
198.1238078378
 20
1128.2779849994
 11
198.1238078378
 21
1133.0581263532
  0
LINE
  5
3DC
100
AcDbEntity
  8
0
100
AcDbLine
 62
7
  6
CONTINUOUS
 10
198.2163305497
 20
1140.6680556763
 11
198.2163305497
 21
1136.4680556763
  0
LINE
  5
3DD
100
AcDbEntity
  8
0
100
AcDbLine
 62
7
  6
CONTINUOUS
 10
201.2163305497
 20
1100.6680556763
 11
201.2163305497
 21
1090.6680556763
  0
LINE
  5
3DE
100
AcDbEntity
  8
000-SPOJ_MAT
100
AcDbLine
 62
7
  6
CONTINUOUS
 10
201.2213558029
 20
1135.6680556763
 11
201.2213558029
 21
1134.8680556763
  0
LINE
  5
3DF
100
AcDbEntity
  8
000-SPOJ_MAT
100
AcDbLine
 62
7
  6
CONTINUOUS
 10
203.0312851259
 20
1128.2779849994
 11
203.0312851259
 21
1133.0581263532
  0
LINE
  5
3E0
100
AcDbEntity
  8
AXIS
100
AcDbLine
 62
7
  6
CONTINUOUS
 10
205.7163305497
 20
1110.6680556763
 11
205.7163305497
 21
1119.4680556763
  0
LINE
  5
3E1
100
AcDbEntity
  8
AXIS
100
AcDbLine
 62
7
  6
CONTINUOUS
 10
206.7163305497
 20
1119.4680556763
 11
206.7163305497
 21
1029.4680556763
  0
LINE
  5
3E2
100
AcDbEntity
  8
AXIS
100
AcDbLine
 62
7
  6
CONTINUOUS
 10
211.7163305497
 20
1119.4680556763
 11
211.7163305497
 21
1119.9680556763
  0
LINE
  5
3E3
100
AcDbEntity
  8
AXIS
100
AcDbLine
 62
9
  6
CONTINUOUS
 10
214.7163305497
 20
1119.4680556763
 11
214.7163305497
 21
1119.9680556763
  0
LINE
  5
3E4
100
AcDbEntity
  8
AXIS
100
AcDbLine
 62
9
  6
CONTINUOUS
 10
258.7163305497
 20
1119.4680556763
 11
258.7163305497
 21
1119.9680556763
  0
LINE
  5
3E5
100
AcDbEntity
  8
AXIS
100
AcDbLine
 62
7
  6
CONTINUOUS
 10
261.7163305497
 20
1119.4680556763
 11
261.7163305497
 21
1119.9680556763
  0
LINE
  5
3E6
100
AcDbEntity
  8
AXIS
100
AcDbLine
 62
7
  6
CONTINUOUS
 10
266.7163305497
 20
1029.4680556763
 11
266.7163305497
 21
1119.4680556763
  0
LINE
  5
3E7
100
AcDbEntity
  8
AXIS
100
AcDbLine
 62
7
  6
CONTINUOUS
 10
267.7163305497
 20
1110.6680556763
 11
267.7163305497
 21
1119.4680556763
  0
LINE
  5
3E8
100
AcDbEntity
  8
000-SPOJ_MAT
100
AcDbLine
 62
7
  6
CONTINUOUS
 10
270.4013759735
 20
1128.2779849994
 11
270.4013759735
 21
1133.0581263532
  0
LINE
  5
3E9
100
AcDbEntity
  8
000-SPOJ_MAT
100
AcDbLine
 62
7
  6
CONTINUOUS
 10
272.2113052965
 20
1135.6680556763
 11
272.2113052965
 21
1134.8680556763
  0
LINE
  5
3EA
100
AcDbEntity
  8
0
100
AcDbLine
 62
7
  6
CONTINUOUS
 10
272.2163305497
 20
1098.6680556763
 11
272.2163305497
 21
1088.6680556763
  0
LINE
  5
3EB
100
AcDbEntity
  8
0
100
AcDbLine
 62
7
  6
CONTINUOUS
 10
275.2163305497
 20
1138.6680556763
 11
275.2163305497
 21
1136.4680556763
  0
LINE
  5
3EC
100
AcDbEntity
  8
000-SPOJ_MAT
100
AcDbLine
 62
7
  6
CONTINUOUS
 10
275.3088532616
 20
1128.2779849994
 11
275.3088532616
 21
1133.0581263532
  0
LINE
  5
3ED
100
AcDbEntity
  8
000-SPOJ_MAT
100
AcDbLine
 62
7
  6
CONTINUOUS
 10
285.1238078378
 20
1128.2779849994
 11
285.1238078378
 21
1133.0581263532
  0
LINE
  5
3EE
100
AcDbEntity
  8
0
100
AcDbLine
 62
7
  6
CONTINUOUS
 10
285.2163305497
 20
1138.6680556763
 11
285.2163305497
 21
1136.4680556763
  0
LINE
  5
3EF
100
AcDbEntity
  8
0
100
AcDbLine
 62
7
  6
CONTINUOUS
 10
288.2163305497
 20
1098.6680556763
 11
288.2163305497
 21
1088.6680556763
  0
LINE
  5
3F0
100
AcDbEntity
  8
000-SPOJ_MAT
100
AcDbLine
 62
7
  6
CONTINUOUS
 10
288.2213558029
 20
1135.6680556763
 11
288.2213558029
 21
1134.8680556763
  0
LINE
  5
3F1
100
AcDbEntity
  8
000-SPOJ_MAT
100
AcDbLine
 62
7
  6
CONTINUOUS
 10
290.0312851259
 20
1128.2779849994
 11
290.0312851259
 21
1133.0581263532
  0
LINE
  5
3F2
100
AcDbEntity
  8
AXIS
100
AcDbLine
 62
7
  6
CONTINUOUS
 10
292.7163305497
 20
1098.6680556763
 11
292.7163305497
 21
1119.4680556763
  0
LINE
  5
3F3
100
AcDbEntity
  8
0
100
AcDbLine
 62
7
  6
CONTINUOUS
 10
472.7163305497
 20
1119.4680556763
 11
472.7163305497
 21
1109.4680556763
  0
LINE
  5
3F4
100
AcDbEntity
  8
0
100
AcDbLine
 62
7
  6
CONTINUOUS
 10
502.7163305497
 20
1119.4680556763
 11
502.7163305497
 21
1109.4680556763
  0
LINE
  5
3F5
100
AcDbEntity
  8
ROUND
100
AcDbLine
 62
7
  6
CONTINUOUS
 10
640.7163305497
 20
831.9680556763
 11
640.7163305497
 21
929.4680556763
  0
LINE
  5
3F6
100
AcDbEntity
  8
0
100
AcDbLine
 62
7
  6
CONTINUOUS
 10
641.7163305497
 20
930.4680556763
 11
641.7163305497
 21
1028.9680556763
  0
LINE
  5
3F7
100
AcDbEntity
  8
AXIS
100
AcDbLine
 62
7
  6
CONTINUOUS
 10
675.2163305497
 20
1059.4680556763
 11
675.2163305497
 21
1039.4680556763
  0
LINE
  5
3F8
100
AcDbEntity
  8
AXIS
100
AcDbLine
 62
7
  6
CONTINUOUS
 10
676.2163305497
 20
1060.9680556763
 11
676.2163305497
 21
1059.4680556763
  0
LINE
  5
3F9
100
AcDbEntity
  8
AXIS
100
AcDbLine
 62
7
  6
CONTINUOUS
 10
677.2163305497
 20
1061.9680556763
 11
677.2163305497
 21
1060.9680556763
  0
LINE
  5
3FA
100
AcDbEntity
  8
0
100
AcDbLine
 62
7
  6
CONTINUOUS
 10
677.2163305497
 20
1039.4680556763
 11
677.2163305497
 21
1038.2913675031
  0
LINE
  5
3FB
100
AcDbEntity
  8
AXIS
100
AcDbLine
 62
7
  6
CONTINUOUS
 10
680.2163305497
 20
1059.4680556763
 11
680.2163305497
 21
1039.4680556763
  0
LINE
  5
3FC
100
AcDbEntity
  8
AXIS
100
AcDbLine
 62
7
  6
CONTINUOUS
 10
683.2163305497
 20
1061.9680556763
 11
683.2163305497
 21
1060.9680556763
  0
LINE
  5
3FD
100
AcDbEntity
  8
AXIS
100
AcDbLine
 62
7
  6
CONTINUOUS
 10
684.2163305497
 20
1060.9680556763
 11
684.2163305497
 21
1059.4680556763
  0
LINE
  5
3FE
100
AcDbEntity
  8
ROUND
100
AcDbLine
 62
7
  6
CONTINUOUS
 10
684.2163305497
 20
1046.3900341921
 11
684.2163305497
 21
1042.1900341921
  0
LINE
  5
3FF
100
AcDbEntity
  8
000-SPOJ_MAT
100
AcDbLine
 62
7
  6
CONTINUOUS
 10
684.2163305497
 20
1113.092319745
 11
684.2163305497
 21
1119.0437916076
  0
LINE
  5
400
100
AcDbEntity
  8
000-SPOJ_MAT
100
AcDbLine
 62
7
  6
CONTINUOUS
 10
684.2163305497
 20
1126.892319745
 11
684.2163305497
 21
1132.8437916076
  0
LINE
  5
401
100
AcDbEntity
  8
AXIS
100
AcDbLine
 62
7
  6
CONTINUOUS
 10
685.2163305497
 20
1059.4680556763
 11
685.2163305497
 21
1048.0004379408
  0
LINE
  5
402
100
AcDbEntity
  8
AXIS
100
AcDbLine
 62
7
  6
CONTINUOUS
 10
685.2163305497
 20
1042.1900341921
 11
685.2163305497
 21
1041.3713969252
  0
LINE
  5
403
100
AcDbEntity
  8
ROUND
100
AcDbLine
 62
9
  6
CONTINUOUS
 10
685.7163305497
 20
1038.2913675031
 11
685.7163305497
 21
1041.3892544705
  0
LINE
  5
404
100
AcDbEntity
  8
ROUND
100
AcDbLine
 62
9
  6
CONTINUOUS
 10
686.0163305497
 20
1042.1900341921
 11
686.0163305497
 21
1048.1900341921
  0
LINE
  5
405
100
AcDbEntity
  8
0
100
AcDbLine
 62
7
  6
CONTINUOUS
 10
686.7163305497
 20
1135.6680556763
 11
686.7163305497
 21
1133.2680556763
  0
LINE
  5
406
100
AcDbEntity
  8
0
100
AcDbLine
 62
7
  6
CONTINUOUS
 10
686.7163305497
 20
1112.6680556763
 11
686.7163305497
 21
1065.4680556763
  0
LINE
  5
407
100
AcDbEntity
  8
000-SPOJ_MAT
100
AcDbLine
 62
7
  6
CONTINUOUS
 10
690.7163305497
 20
1131.8382381081
 11
690.7163305497
 21
1127.8978732445
  0
LINE
  5
408
100
AcDbEntity
  8
000-SPOJ_MAT
100
AcDbLine
 62
7
  6
CONTINUOUS
 10
690.7163305497
 20
1114.0978732445
 11
690.7163305497
 21
1118.0382381081
  0
LINE
  5
409
100
AcDbEntity
  8
0
100
AcDbLine
 62
7
  6
CONTINUOUS
 10
694.7163305497
 20
1135.6680556763
 11
694.7163305497
 21
1133.2680556763
  0
LINE
  5
40A
100
AcDbEntity
  8
0
100
AcDbLine
 62
7
  6
CONTINUOUS
 10
694.7163305497
 20
1112.6680556763
 11
694.7163305497
 21
1065.4680556763
  0
LINE
  5
40B
100
AcDbEntity
  8
ROUND
100
AcDbLine
 62
9
  6
CONTINUOUS
 10
695.4163305497
 20
1042.1900341921
 11
695.4163305497
 21
1048.1900341921
  0
LINE
  5
40C
100
AcDbEntity
  8
ROUND
100
AcDbLine
 62
9
  6
CONTINUOUS
 10
695.7163305497
 20
1038.2913675031
 11
695.7163305497
 21
1041.3892544705
  0
LINE
  5
40D
100
AcDbEntity
  8
000-SPOJ_MAT
100
AcDbLine
 62
7
  6
CONTINUOUS
 10
697.2163305497
 20
1132.8437916076
 11
697.2163305497
 21
1126.892319745
  0
LINE
  5
40E
100
AcDbEntity
  8
ROUND
100
AcDbLine
 62
7
  6
CONTINUOUS
 10
697.2163305497
 20
1042.1900341921
 11
697.2163305497
 21
1046.3900341921
  0
LINE
  5
40F
100
AcDbEntity
  8
000-SPOJ_MAT
100
AcDbLine
 62
7
  6
CONTINUOUS
 10
697.2163305497
 20
1113.092319745
 11
697.2163305497
 21
1119.0437916076
  0
LINE
  5
410
100
AcDbEntity
  8
0
100
AcDbLine
 62
7
  6
CONTINUOUS
 10
698.2163305497
 20
1040.9566438666
 11
698.2163305497
 21
1061.9680556763
  0
LINE
  5
411
100
AcDbEntity
  8
0
100
AcDbLine
 62
7
  6
CONTINUOUS
 10
702.7163305497
 20
1119.4680556763
 11
702.7163305497
 21
1164.4680556763
  0
LINE
  5
412
100
AcDbEntity
  8
0
100
AcDbLine
 62
7
  6
CONTINUOUS
 10
704.2163305497
 20
1038.2913675031
 11
704.2163305497
 21
1061.9680556763
  0
LINE
  5
413
100
AcDbEntity
  8
0
100
AcDbLine
 62
7
  6
CONTINUOUS
 10
739.7163305497
 20
930.4680556763
 11
739.7163305497
 21
1028.9680556763
  0
LINE
  5
414
100
AcDbEntity
  8
ROUND
100
AcDbLine
 62
7
  6
CONTINUOUS
 10
740.7163305497
 20
831.9679958969
 11
740.7163305497
 21
929.4680556763
  0
LINE
  5
415
100
AcDbEntity
  8
000-SPOJ_MAT
100
AcDbLine
 62
7
  6
CONTINUOUS
 10
183.4013759735
 20
1128.2779849994
 11
185.2113052965
 21
1126.4680556763
  0
LINE
  5
416
100
AcDbEntity
  8
000-SPOJ_MAT
100
AcDbLine
 62
7
  6
CONTINUOUS
 10
201.2213558029
 20
1134.8680556763
 11
203.0312851259
 21
1133.0581263532
  0
LWPOLYLINE
  5
417
100
AcDbEntity
  8
000-SPOJ_MAT
100
AcDbPolyline
 62
7
  6
CONTINUOUS
 90
11
 70
0
 10
183.4013759735
 20
1128.2779849994
 10
183.9385914389
 20
1127.7873129359
 10
184.4400955479
 20
1127.4217756405
 10
184.9207000064
 20
1127.1660484435
 10
185.3902795355
 20
1127.013719671
 10
185.855307782
 20
1126.9630304319
 10
186.3203394172
 20
1127.0138044499
 10
186.7899235909
 20
1127.1662178431
 10
187.2705653504
 20
1127.4220483999
 10
187.7719719582
 20
1127.7875876919
 10
188.3088532616
 20
1128.2779849994
  0
LWPOLYLINE
  5
418
100
AcDbEntity
  8
000-SPOJ_MAT
100
AcDbPolyline
 62
7
  6
CONTINUOUS
 90
11
 70
0
 10
188.3088532616
 20
1133.0581263532
 10
187.7716378123
 20
1133.5487984035
 10
187.2701337156
 20
1133.9143356941
 10
186.7895292671
 20
1134.1700628927
 10
186.3199497491
 20
1134.3223916708
 10
185.8549215139
 20
1134.3730809207
 10
185.3898898957
 20
1134.3223069196
 10
184.9203057229
 20
1134.1698935433
 10
184.4396640422
 20
1133.9140630522
 10
183.9382571941
 20
1133.5485235927
 10
183.4013759735
 20
1133.0581263532
  0
LWPOLYLINE
  5
419
100
AcDbEntity
  8
000-SPOJ_MAT
100
AcDbPolyline
 62
7
  6
CONTINUOUS
 90
11
 70
0
 10
198.1238078378
 20
1128.2779849994
 10
198.6606893916
 20
1127.7875874859
 10
199.1620939323
 20
1127.422049548
 10
199.6427346323
 20
1127.1662190788
 10
200.1123209329
 20
1127.013804613
 10
200.5773559552
 20
1126.9630304317
 10
201.0423875432
 20
1127.0137209712
 10
201.5119688961
 20
1127.1660517946
 10
201.9925733172
 20
1127.4217805468
 10
202.4940722226
 20
1127.7873150423
 10
203.0312851259
 20
1128.2779849994
  0
LWPOLYLINE
  5
41A
100
AcDbEntity
  8
000-SPOJ_MAT
100
AcDbPolyline
 62
7
  6
CONTINUOUS
 90
11
 70
0
 10
203.0312851259
 20
1133.0581263532
 10
202.4940696766
 20
1133.5487984035
 10
201.9925655799
 20
1133.9143356941
 10
201.5119611314
 20
1134.1700628927
 10
201.0423816134
 20
1134.3223916708
 10
200.5773533783
 20
1134.3730809207
 10
200.11232176
 20
1134.3223069196
 10
199.6427375872
 20
1134.1698935433
 10
199.1620959065
 20
1133.9140630522
 10
198.6606890585
 20
1133.5485235927
 10
198.1238078378
 20
1133.0581263532
  0
LWPOLYLINE
  5
41B
100
AcDbEntity
  8
000-SPOJ_MAT
100
AcDbPolyline
 62
7
  6
CONTINUOUS
 90
11
 70
0
 10
270.4013759735
 20
1128.2779849994
 10
270.9385914389
 20
1127.7873129359
 10
271.4400955479
 20
1127.4217756405
 10
271.9207000064
 20
1127.1660484435
 10
272.3902795355
 20
1127.013719671
 10
272.855307782
 20
1126.9630304319
 10
273.3203394172
 20
1127.0138044499
 10
273.7899235909
 20
1127.1662178431
 10
274.2705653504
 20
1127.4220483999
 10
274.7719719582
 20
1127.7875876919
 10
275.3088532616
 20
1128.2779849994
  0
LINE
  5
41C
100
AcDbEntity
  8
000-SPOJ_MAT
100
AcDbLine
 62
7
  6
CONTINUOUS
 10
270.4013759735
 20
1128.2779849994
 11
272.2113052965
 21
1126.4680556763
  0
LINE
  5
41D
100
AcDbEntity
  8
000-SPOJ_MAT
100
AcDbLine
 62
7
  6
CONTINUOUS
 10
288.2213558029
 20
1134.8680556763
 11
290.0312851259
 21
1133.0581263532
  0
LWPOLYLINE
  5
41E
100
AcDbEntity
  8
000-SPOJ_MAT
100
AcDbPolyline
 62
7
  6
CONTINUOUS
 90
11
 70
0
 10
275.3088532616
 20
1133.0581263532
 10
274.7716378123
 20
1133.5487984035
 10
274.2701337156
 20
1133.9143356941
 10
273.7895292671
 20
1134.1700628927
 10
273.3199497491
 20
1134.3223916708
 10
272.8549215139
 20
1134.3730809207
 10
272.3898898957
 20
1134.3223069196
 10
271.9203057229
 20
1134.1698935433
 10
271.4396640422
 20
1133.9140630522
 10
270.9382571941
 20
1133.5485235927
 10
270.4013759735
 20
1133.0581263532
  0
LWPOLYLINE
  5
41F
100
AcDbEntity
  8
000-SPOJ_MAT
100
AcDbPolyline
 62
7
  6
CONTINUOUS
 90
11
 70
0
 10
285.1238078378
 20
1128.2779849994
 10
285.6606893916
 20
1127.7875874859
 10
286.1620939323
 20
1127.422049548
 10
286.6427346323
 20
1127.1662190788
 10
287.1123209329
 20
1127.013804613
 10
287.5773559552
 20
1126.9630304317
 10
288.0423875432
 20
1127.0137209712
 10
288.5119688961
 20
1127.1660517946
 10
288.9925733172
 20
1127.4217805468
 10
289.4940722226
 20
1127.7873150423
 10
290.0312851259
 20
1128.2779849994
  0
LWPOLYLINE
  5
420
100
AcDbEntity
  8
000-SPOJ_MAT
100
AcDbPolyline
 62
7
  6
CONTINUOUS
 90
11
 70
0
 10
290.0312851259
 20
1133.0581263532
 10
289.4940696766
 20
1133.5487984035
 10
288.9925655799
 20
1133.9143356941
 10
288.5119611314
 20
1134.1700628927
 10
288.0423816134
 20
1134.3223916708
 10
287.5773533783
 20
1134.3730809207
 10
287.11232176
 20
1134.3223069196
 10
286.6427375872
 20
1134.1698935433
 10
286.1620959065
 20
1133.9140630522
 10
285.6606890585
 20
1133.5485235927
 10
285.1238078378
 20
1133.0581263532
  0
LINE
  5
421
100
AcDbEntity
  8
0
100
AcDbLine
 62
7
  6
CONTINUOUS
 10
640.7163741494
 20
828.9680556769
 11
740.7162872929
 21
828.9680556769
  0
LINE
  5
422
100
AcDbEntity
  8
0
100
AcDbLine
 62
7
  6
CONTINUOUS
 10
740.7163305497
 20
831.9680556763
 11
640.7163305497
 21
831.9680556763
  0
LINE
  5
423
100
AcDbEntity
  8
ROUND
100
AcDbLine
 62
9
  6
CONTINUOUS
 10
640.7163305497
 20
929.4680556763
 11
740.7163305497
 21
929.4680562832
  0
LINE
  5
424
100
AcDbEntity
  8
0
100
AcDbLine
 62
7
  6
CONTINUOUS
 10
641.7163305497
 20
930.4680556763
 11
739.7163305497
 21
930.4680556763
  0
LINE
  5
425
100
AcDbEntity
  8
ROUND
100
AcDbLine
 62
7
  6
CONTINUOUS
 10
641.7163305497
 20
930.4680556763
 11
739.7163305497
 21
930.4680556763
  0
LWPOLYLINE
  5
426
100
AcDbEntity
  8
000-SPOJ_MAT
100
AcDbPolyline
 62
7
  6
CONTINUOUS
 90
6
 70
0
 10
188.3088532616
 20
1128.2779849994
 10
189.371178092
 20
1127.7922960654
 10
190.3704000086
 20
1127.4268086804
 10
191.3336503415
 20
1127.1690332239
 10
192.2785813353
 20
1127.0146018336
 10
193.2163305497
 20
1126.9630304231
  0
LWPOLYLINE
  5
427
100
AcDbEntity
  8
000-SPOJ_MAT
100
AcDbPolyline
 62
7
  6
CONTINUOUS
 90
6
 70
0
 10
198.1238078378
 20
1133.0581263532
 10
197.0614820135
 20
1133.5438156969
 10
196.0622601453
 20
1133.9093029724
 10
195.0990095308
 20
1134.1670783941
 10
194.1540789601
 20
1134.3215096071
 10
193.2163305497
 20
1134.3730809295
  0
LWPOLYLINE
  5
428
100
AcDbEntity
  8
000-SPOJ_MAT
100
AcDbPolyline
 62
7
  6
CONTINUOUS
 90
6
 70
0
 10
275.3088532616
 20
1128.2779849994
 10
276.371178092
 20
1127.7922960654
 10
277.3704000086
 20
1127.4268086804
 10
278.3336503415
 20
1127.1690332239
 10
279.2785813353
 20
1127.0146018336
 10
280.2163305497
 20
1126.9630304231
  0
LWPOLYLINE
  5
429
100
AcDbEntity
  8
000-SPOJ_MAT
100
AcDbPolyline
 62
7
  6
CONTINUOUS
 90
6
 70
0
 10
285.1238078378
 20
1133.0581263532
 10
284.0614820135
 20
1133.5438156969
 10
283.0622601453
 20
1133.9093029724
 10
282.0990095308
 20
1134.1670783941
 10
281.1540789601
 20
1134.3215096071
 10
280.2163305497
 20
1134.3730809295
  0
LINE
  5
42A
100
AcDbEntity
  8
000-SPOJ_MAT
100
AcDbLine
 62
7
  6
CONTINUOUS
 10
684.2163305497
 20
1113.092319745
 11
684.6405946184
 21
1112.6680556763
  0
LINE
  5
42B
100
AcDbEntity
  8
000-SPOJ_MAT
100
AcDbLine
 62
7
  6
CONTINUOUS
 10
684.2163305497
 20
1126.892319745
 11
684.6405946184
 21
1126.4680556763
  0
LINE
  5
42C
100
AcDbEntity
  8
000-SPOJ_MAT
100
AcDbLine
 62
7
  6
CONTINUOUS
 10
697.2163305497
 20
1119.0437916076
 11
696.792066481
 21
1119.4680556763
  0
LINE
  5
42D
100
AcDbEntity
  8
000-SPOJ_MAT
100
AcDbLine
 62
7
  6
CONTINUOUS
 10
697.2163305497
 20
1132.8437916076
 11
696.792066481
 21
1133.2680556763
  0
LINE
  5
42E
100
AcDbEntity
  8
0
100
AcDbLine
 62
7
  6
CONTINUOUS
 10
693.9163305497
 20
1136.4680556763
 11
694.7163305497
 21
1135.6680556763
  0
LINE
  5
42F
100
AcDbEntity
  8
0
100
AcDbLine
 62
7
  6
CONTINUOUS
 10
739.7163305497
 20
1028.9680556763
 11
641.7163305497
 21
1028.9680556763
  0
LINE
  5
430
100
AcDbEntity
  8
0
100
AcDbLine
 62
7
  6
CONTINUOUS
 10
739.7163305497
 20
1031.9680556763
 11
641.7216105079
 21
1031.9680556763
  0
LINE
  5
431
100
AcDbEntity
  8
0
100
AcDbLine
 62
9
  6
CONTINUOUS
 10
665.4927434571
 20
1038.1934805357
 11
715.9399176423
 21
1038.1934805357
  0
LINE
  5
432
100
AcDbEntity
  8
0
100
AcDbLine
 62
7
  6
CONTINUOUS
 10
715.3218836536
 20
1038.2913675031
 11
666.1107774458
 21
1038.2913675031
  0
LINE
  5
433
100
AcDbEntity
  8
AXIS
100
AcDbLine
 62
7
  6
CONTINUOUS
 10
675.2163305497
 20
1039.4680556763
 11
680.7089379478
 21
1039.4680556763
  0
LINE
  5
434
100
AcDbEntity
  8
ROUND
100
AcDbLine
 62
7
  6
CONTINUOUS
 10
695.7163305497
 20
1041.3892544705
 11
685.7163305497
 21
1041.3892544705
  0
LINE
  5
435
100
AcDbEntity
  8
ROUND
100
AcDbLine
 62
7
  6
CONTINUOUS
 10
684.2163305497
 20
1042.1900341921
 11
697.2163305497
 21
1042.1900341921
  0
LINE
  5
436
100
AcDbEntity
  8
ROUND
100
AcDbLine
 62
9
  6
CONTINUOUS
 10
684.2163305497
 20
1046.3900341921
 11
697.2163305497
 21
1046.3900341921
  0
LINE
  5
437
100
AcDbEntity
  8
ROUND
100
AcDbLine
 62
7
  6
CONTINUOUS
 10
695.4163305497
 20
1048.1900341921
 11
686.0163305497
 21
1048.1900341921
  0
LINE
  5
438
100
AcDbEntity
  8
0
100
AcDbLine
 62
7
  6
CONTINUOUS
 10
702.7163305497
 20
1164.4680556763
 11
687.7163305497
 21
1179.4680556763
  0
LWPOLYLINE
  5
439
100
AcDbEntity
  8
000-SPOJ_MAT
100
AcDbPolyline
 62
7
  6
CONTINUOUS
 90
6
 70
0
 10
280.2163305497
 20
1126.9630304231
 10
281.1601788753
 20
1127.0152727994
 10
282.1096436359
 20
1127.1713387802
 10
283.0744209016
 20
1127.4306767397
 10
284.070691055
 20
1127.7960950272
 10
285.1238078378
 20
1128.2779849994
  0
LWPOLYLINE
  5
43A
100
AcDbEntity
  8
000-SPOJ_MAT
100
AcDbPolyline
 62
7
  6
CONTINUOUS
 90
6
 70
0
 10
193.2163305497
 20
1126.9630304231
 10
194.1601788753
 20
1127.0152727994
 10
195.1096436359
 20
1127.1713387802
 10
196.0744209016
 20
1127.4306767397
 10
197.070691055
 20
1127.7960950272
 10
198.1238078378
 20
1128.2779849994
  0
LWPOLYLINE
  5
43B
100
AcDbEntity
  8
000-SPOJ_MAT
100
AcDbPolyline
 62
7
  6
CONTINUOUS
 90
6
 70
0
 10
280.2163305497
 20
1134.3730809295
 10
279.2724819261
 20
1134.3208385203
 10
278.3230171011
 20
1134.1647724936
 10
277.3582402414
 20
1133.9054346268
 10
276.3619697326
 20
1133.5400161966
 10
275.3088532616
 20
1133.0581263532
  0
LWPOLYLINE
  5
43C
100
AcDbEntity
  8
000-SPOJ_MAT
100
AcDbPolyline
 62
7
  6
CONTINUOUS
 90
6
 70
0
 10
193.2163305497
 20
1134.3730809295
 10
192.2724819261
 20
1134.3208385203
 10
191.3230171011
 20
1134.1647724936
 10
190.3582402414
 20
1133.9054346268
 10
189.3619697326
 20
1133.5400161966
 10
188.3088532616
 20
1133.0581263532
  0
LINE
  5
43D
100
AcDbEntity
  8
AXIS
100
AcDbLine
 62
7
  6
CONTINUOUS
 10
675.2163305497
 20
1059.4680556763
 11
685.2163305497
 21
1059.4680556763
  0
LINE
  5
43E
100
AcDbEntity
  8
AXIS
100
AcDbLine
 62
7
  6
CONTINUOUS
 10
684.2163305497
 20
1060.9680556763
 11
676.2163305497
 21
1060.9680556763
  0
LINE
  5
43F
100
AcDbEntity
  8
0
100
AcDbLine
 62
9
  6
CONTINUOUS
 10
683.2163305497
 20
1061.9680556763
 11
677.2163305497
 21
1061.9680556763
  0
LINE
  5
440
100
AcDbEntity
  8
0
100
AcDbLine
 62
9
  6
CONTINUOUS
 10
698.2163305497
 20
1061.9680556763
 11
704.2163305497
 21
1061.9680556763
  0
LINE
  5
441
100
AcDbEntity
  8
0
100
AcDbLine
 62
9
  6
CONTINUOUS
 10
694.7163305497
 20
1083.4680556763
 11
686.7163305497
 21
1083.4680556763
  0
LINE
  5
442
100
AcDbEntity
  8
0
100
AcDbLine
 62
7
  6
CONTINUOUS
 10
288.2161907208
 20
1088.6680556763
 11
272.2164703786
 21
1088.6680556763
  0
LINE
  5
443
100
AcDbEntity
  8
0
100
AcDbLine
 62
7
  6
CONTINUOUS
 10
201.2161907208
 20
1090.6680556763
 11
185.2164703786
 21
1090.6680556763
  0
LINE
  5
444
100
AcDbEntity
  8
AXIS
100
AcDbLine
 62
7
  6
CONTINUOUS
 10
292.7163305497
 20
1098.6680556763
 11
266.7163305497
 21
1098.6680556763
  0
LINE
  5
445
100
AcDbEntity
  8
AXIS
100
AcDbLine
 62
7
  6
CONTINUOUS
 10
180.7163305497
 20
1100.6680556763
 11
206.7163305497
 21
1100.6680556763
  0
LINE
  5
446
100
AcDbEntity
  8
0
100
AcDbLine
 62
7
  6
CONTINUOUS
 10
502.7163305497
 20
1109.4680556763
 11
472.7163305497
 21
1109.4680556763
  0
LINE
  5
447
100
AcDbEntity
  8
AXIS
100
AcDbLine
 62
7
  6
CONTINUOUS
 10
292.7163305497
 20
1110.6680556763
 11
266.7163305497
 21
1110.6680556763
  0
LINE
  5
448
100
AcDbEntity
  8
AXIS
100
AcDbLine
 62
7
  6
CONTINUOUS
 10
180.7163305497
 20
1110.6680556763
 11
206.7163305497
 21
1110.6680556763
  0
LINE
  5
449
100
AcDbEntity
  8
000-SPOJ_MAT
100
AcDbLine
 62
7
  6
CONTINUOUS
 10
696.792066481
 20
1112.6680556763
 11
684.6405946184
 21
1112.6680556763
  0
LINE
  5
44A
100
AcDbEntity
  8
AXIS
100
AcDbLine
 62
7
  6
CONTINUOUS
 10
180.7163305497
 20
1118.6680556763
 11
205.7163305497
 21
1118.6680556763
  0
LINE
  5
44B
100
AcDbEntity
  8
AXIS
100
AcDbLine
 62
7
  6
CONTINUOUS
 10
267.7163305497
 20
1118.6680556763
 11
292.7163305497
 21
1118.6680556763
  0
LINE
  5
44C
100
AcDbEntity
  8
AXIS
100
AcDbLine
 62
7
  6
CONTINUOUS
 10
292.7163305497
 20
1119.4680556763
 11
267.7163305497
 21
1119.4680556763
  0
LINE
  5
44D
100
AcDbEntity
  8
0
100
AcDbLine
 62
7
  6
CONTINUOUS
 10
702.7163305497
 20
1119.4680556763
 11
266.7163305497
 21
1119.4680556763
  0
LINE
  5
44E
100
AcDbEntity
  8
AXIS
100
AcDbLine
 62
7
  6
CONTINUOUS
 10
266.7163305497
 20
1119.4680556763
 11
206.7163305497
 21
1119.4680556763
  0
LINE
  5
44F
100
AcDbEntity
  8
0
100
AcDbLine
 62
7
  6
CONTINUOUS
 10
206.7163305497
 20
1119.4680556763
 11
120.7163305497
 21
1119.4680556763
  0
LINE
  5
450
100
AcDbEntity
  8
AXIS
100
AcDbLine
 62
7
  6
CONTINUOUS
 10
180.7163305497
 20
1119.4680556763
 11
205.7163305497
 21
1119.4680556763
  0
LINE
  5
451
100
AcDbEntity
  8
AXIS
100
AcDbLine
 62
7
  6
CONTINUOUS
 10
211.7163305497
 20
1119.9680556763
 11
261.7163305497
 21
1119.9680556763
  0
LINE
  5
452
100
AcDbEntity
  8
ROUND
100
AcDbLine
 62
7
  6
CONTINUOUS
 10
216.6759141789
 20
1121.5680556763
 11
216.7567469205
 21
1121.5680556763
  0
LINE
  5
453
100
AcDbEntity
  8
ROUND
100
AcDbLine
 62
7
  6
CONTINUOUS
 10
256.6759141789
 20
1121.5680556763
 11
256.7567469205
 21
1121.5680556763
  0
LINE
  5
454
100
AcDbEntity
  8
0
100
AcDbLine
 62
7
  6
CONTINUOUS
 10
702.7163305497
 20
1126.4680556763
 11
120.7163305497
 21
1126.4680556763
  0
LINE
  5
455
100
AcDbEntity
  8
000-SPOJ_MAT
100
AcDbLine
 62
7
  6
CONTINUOUS
 10
684.6405946184
 20
1133.2680556763
 11
696.792066481
 21
1133.2680556763
  0
LINE
  5
456
100
AcDbEntity
  8
000-SPOJ_MAT
100
AcDbLine
 62
7
  6
CONTINUOUS
 10
185.2113052965
 20
1134.8680556763
 11
201.2213558029
 21
1134.8680556763
  0
LINE
  5
457
100
AcDbEntity
  8
000-SPOJ_MAT
100
AcDbLine
 62
7
  6
CONTINUOUS
 10
272.2113052965
 20
1134.8680556763
 11
288.2213558029
 21
1134.8680556763
  0
LINE
  5
458
100
AcDbEntity
  8
000-SPOJ_MAT
100
AcDbLine
 62
9
  6
CONTINUOUS
 10
288.2213558029
 20
1135.6680556763
 11
272.2113052965
 21
1135.6680556763
  0
LINE
  5
459
100
AcDbEntity
  8
000-SPOJ_MAT
100
AcDbLine
 62
9
  6
CONTINUOUS
 10
201.2213558029
 20
1135.6680556763
 11
185.2113052965
 21
1135.6680556763
  0
LINE
  5
45A
100
AcDbEntity
  8
0
100
AcDbLine
 62
7
  6
CONTINUOUS
 10
686.7163305497
 20
1135.6680556763
 11
694.7163305497
 21
1135.6680556763
  0
LINE
  5
45B
100
AcDbEntity
  8
000-SPOJ_MAT
100
AcDbLine
 62
7
  6
CONTINUOUS
 10
287.4213558029
 20
1136.4680556763
 11
273.0113052965
 21
1136.4680556763
  0
LINE
  5
45C
100
AcDbEntity
  8
000-SPOJ_MAT
100
AcDbLine
 62
7
  6
CONTINUOUS
 10
200.4213558029
 20
1136.4680556763
 11
186.0113052965
 21
1136.4680556763
  0
LINE
  5
45D
100
AcDbEntity
  8
0
100
AcDbLine
 62
7
  6
CONTINUOUS
 10
687.5165806114
 20
1136.4680556763
 11
693.916080488
 21
1136.4680556763
  0
LINE
  5
45E
100
AcDbEntity
  8
0
100
AcDbLine
 62
7
  6
CONTINUOUS
 10
285.2163305497
 20
1138.6680556763
 11
275.2163305497
 21
1138.6680556763
  0
LINE
  5
45F
100
AcDbEntity
  8
0
100
AcDbLine
 62
7
  6
CONTINUOUS
 10
198.2163305497
 20
1140.6680556763
 11
188.2163305497
 21
1140.6680556763
  0
LINE
  5
460
100
AcDbEntity
  8
0
100
AcDbLine
 62
7
  6
CONTINUOUS
 10
687.7163305497
 20
1179.4680556763
 11
135.7163305497
 21
1179.4680556763
  0
LINE
  5
461
100
AcDbEntity
  8
0
100
AcDbLine
 62
7
  6
CONTINUOUS
 10
715.9399176423
 20
1038.1934805357
 11
735.0998052439
 21
1031.9680556763
  0
LWPOLYLINE
  5
462
100
AcDbEntity
  8
000-SPOJ_MAT
100
AcDbPolyline
 62
7
  6
CONTINUOUS
 90
11
 70
0
 10
684.2163305497
 20
1114.0978732445
 10
684.9279163874
 20
1113.722634975
 10
685.5922764226
 20
1113.4430694725
 10
686.2287434354
 20
1113.2475554649
 10
686.8505474379
 20
1113.1310952512
 10
687.4662694203
 20
1113.0923197454
 10
688.0819928928
 20
1113.1310800883
 10
688.703784805
 20
1113.2475225252
 10
689.3402681639
 20
1113.4430269768
 10
690.0045436499
 20
1113.7225395399
 10
690.7163305497
 20
1114.0978732445
  0
LWPOLYLINE
  5
463
100
AcDbEntity
  8
000-SPOJ_MAT
100
AcDbPolyline
 62
7
  6
CONTINUOUS
 90
11
 70
0
 10
690.7163305497
 20
1114.0978732445
 10
691.4281213247
 20
1113.7225377005
 10
692.0924013115
 20
1113.4430239219
 10
692.7288842433
 20
1113.2475205545
 10
693.3506733367
 20
1113.1310794443
 10
693.9663925109
 20
1113.0923197454
 10
694.5821101917
 20
1113.1310948156
 10
695.2039113735
 20
1113.2475539052
 10
695.8403782781
 20
1113.4430671386
 10
696.5047419585
 20
1113.722633668
 10
697.2163305497
 20
1114.0978732445
  0
LWPOLYLINE
  5
464
100
AcDbEntity
  8
000-SPOJ_MAT
100
AcDbPolyline
 62
7
  6
CONTINUOUS
 90
11
 70
0
 10
690.7163305497
 20
1118.0382381081
 10
690.0045397788
 20
1118.4135736501
 10
689.3402597905
 20
1118.6930874297
 10
688.7037768553
 20
1118.8885907983
 10
688.0819877588
 20
1119.0050319088
 10
687.466268582
 20
1119.0437916072
 10
686.8505509004
 20
1119.0050165361
 10
686.2287497203
 20
1118.888557446
 10
685.5922828159
 20
1118.693044212
 10
684.927919149
 20
1118.4134776885
 10
684.2163305497
 20
1118.0382381081
  0
LWPOLYLINE
  5
465
100
AcDbEntity
  8
000-SPOJ_MAT
100
AcDbPolyline
 62
7
  6
CONTINUOUS
 90
11
 70
0
 10
697.2163305497
 20
1118.0382381081
 10
696.5047447225
 20
1118.4134763726
 10
695.8403846765
 20
1118.6930418802
 10
695.2039176634
 20
1118.8885558878
 10
694.5821136569
 20
1119.0050161019
 10
693.9663916721
 20
1119.0437916072
 10
693.3506681989
 20
1119.0050312633
 10
692.7288762877
 20
1118.8885888257
 10
692.0923929318
 20
1118.6930843744
 10
691.4281174507
 20
1118.4135718133
 10
690.7163305497
 20
1118.0382381081
  0
LWPOLYLINE
  5
466
100
AcDbEntity
  8
000-SPOJ_MAT
100
AcDbPolyline
 62
7
  6
CONTINUOUS
 90
11
 70
0
 10
684.2163305497
 20
1127.8978732445
 10
684.9279163769
 20
1127.52263498
 10
685.5922764229
 20
1127.2430694724
 10
686.228743436
 20
1127.0475554648
 10
686.8505474425
 20
1126.9310952507
 10
687.4662694273
 20
1126.8923197454
 10
688.0819929005
 20
1126.9310800893
 10
688.7037848117
 20
1127.0475225268
 10
689.3402681676
 20
1127.2430269781
 10
690.0045436487
 20
1127.5225395393
 10
690.7163305497
 20
1127.8978732445
  0
LWPOLYLINE
  5
467
100
AcDbEntity
  8
000-SPOJ_MAT
100
AcDbPolyline
 62
7
  6
CONTINUOUS
 90
11
 70
0
 10
690.7163305497
 20
1127.8978732445
 10
691.4281213206
 20
1127.5225377025
 10
692.0924013089
 20
1127.2430239229
 10
692.7288842441
 20
1127.0475205543
 10
693.3506733406
 20
1126.9310794438
 10
693.9663925174
 20
1126.8923197454
 10
694.582110199
 20
1126.9310948165
 10
695.2039113791
 20
1127.0475539066
 10
695.8403782835
 20
1127.2430671406
 10
696.5047419504
 20
1127.5226336641
 10
697.2163305497
 20
1127.8978732445
  0
LWPOLYLINE
  5
468
100
AcDbEntity
  8
000-SPOJ_MAT
100
AcDbPolyline
 62
7
  6
CONTINUOUS
 90
11
 70
0
 10
690.7163305497
 20
1131.8382381081
 10
690.0045397747
 20
1132.2135736521
 10
689.3402597879
 20
1132.4930874307
 10
688.7037768561
 20
1132.6885907981
 10
688.0819877627
 20
1132.8050319083
 10
687.4662685885
 20
1132.8437916072
 10
686.8505509077
 20
1132.805016537
 10
686.2287497259
 20
1132.6885574474
 10
685.5922828213
 20
1132.493044214
 10
684.9279191409
 20
1132.2134776846
 10
684.2163305497
 20
1131.8382381081
  0
LWPOLYLINE
  5
469
100
AcDbEntity
  8
000-SPOJ_MAT
100
AcDbPolyline
 62
7
  6
CONTINUOUS
 90
11
 70
0
 10
697.2163305497
 20
1131.8382381081
 10
696.504744712
 20
1132.2134763776
 10
695.8403846768
 20
1132.4930418801
 10
695.203917664
 20
1132.6885558877
 10
694.5821136615
 20
1132.8050161013
 10
693.9663916791
 20
1132.8437916072
 10
693.3506682066
 20
1132.8050312642
 10
692.7288762944
 20
1132.6885888274
 10
692.0923929355
 20
1132.4930843758
 10
691.4281174495
 20
1132.2135718127
 10
690.7163305497
 20
1131.8382381081
  0
LINE
  5
46A
100
AcDbEntity
  8
0
100
AcDbLine
 62
7
  6
CONTINUOUS
 10
1875.2678590149
 20
1038.1934805357
 11
1856.1079714133
 21
1031.9680556763
  0
LINE
  5
46B
100
AcDbEntity
  8
0
100
AcDbLine
 62
7
  6
CONTINUOUS
 10
1903.4914461076
 20
1179.4680556763
 11
1888.4914461076
 21
1164.4680556763
  0
LINE
  5
46C
100
AcDbEntity
  8
0
100
AcDbLine
 62
7
  6
CONTINUOUS
 10
1897.2914461076
 20
1136.4680556763
 11
1896.4914461076
 21
1135.6680556763
  0
LINE
  5
46D
100
AcDbEntity
  8
000-SPOJ_MAT
100
AcDbLine
 62
7
  6
CONTINUOUS
 10
1893.9914461076
 20
1132.8437916076
 11
1894.4157101763
 21
1133.2680556763
  0
LINE
  5
46E
100
AcDbEntity
  8
000-SPOJ_MAT
100
AcDbLine
 62
7
  6
CONTINUOUS
 10
1893.9914461076
 20
1119.0437916076
 11
1894.4157101763
 21
1119.4680556763
  0
LINE
  5
46F
100
AcDbEntity
  8
000-SPOJ_MAT
100
AcDbLine
 62
7
  6
CONTINUOUS
 10
1906.9914461076
 20
1126.892319745
 11
1906.5671820388
 21
1126.4680556763
  0
LWPOLYLINE
  5
470
100
AcDbEntity
  8
0
100
AcDbPolyline
 62
6
  6
CONTINUOUS
 90
7
 70
0
 10
2379.3559667358
 20
1134.043971181
 10
2379.1666112413
 20
1133.9654422521
 10
2378.9066208954
 20
1133.8484968451
 10
2378.6113182188
 20
1133.7315112406
 10
2378.306392044
 20
1133.6486565627
 10
2377.9991220325
 20
1133.6179629831
 10
2377.9478526989
 20
1133.6227113679
  0
LINE
  5
471
100
AcDbEntity
  8
000-SPOJ_MAT
100
AcDbLine
 62
7
  6
CONTINUOUS
 10
1906.9914461076
 20
1113.092319745
 11
1906.5671820388
 21
1112.6680556763
  0
LINE
  5
472
100
AcDbEntity
  8
0
100
AcDbLine
 62
7
  6
CONTINUOUS
 10
2388.2414461076
 20
1153.6897435128
 11
2389.4914461076
 21
1154.4114313493
  0
LINE
  5
473
100
AcDbEntity
  8
0
100
AcDbLine
 62
7
  6
CONTINUOUS
 10
2390.7414461076
 20
1152.2463678398
 11
2389.4914461076
 21
1151.5246800033
  0
LWPOLYLINE
  5
474
100
AcDbEntity
  8
0
100
AcDbPolyline
 62
6
  6
CONTINUOUS
 90
6
 70
0
 10
2378.9913063389
 20
1136.835325567
 10
2378.6913498902
 20
1136.6682671495
 10
2378.3533146573
 20
1136.5665163148
 10
2377.9935776962
 20
1136.5318887176
 10
2377.6335072054
 20
1136.5670868225
 10
2377.2936924322
 20
1136.6675901613
  0
LWPOLYLINE
  5
475
100
AcDbEntity
  8
0
100
AcDbPolyline
 62
9
  6
CONTINUOUS
 90
6
 70
0
 10
2383.4246285227
 20
1169.9757923725
 10
2383.3751788081
 20
1169.9390847597
 10
2383.3305695762
 20
1169.8325551183
 10
2383.2951674893
 20
1169.6666313117
 10
2383.2724379503
 20
1169.4575551183
 10
2383.264605885
 20
1169.2257923725
  0
LINE
  5
476
100
AcDbEntity
  8
000-SPOJ_MAT
100
AcDbLine
 62
7
  6
CONTINUOUS
 10
2302.9864208544
 20
1134.8680556763
 11
2301.1764915313
 21
1133.0581263532
  0
LINE
  5
477
100
AcDbEntity
  8
000-SPOJ_MAT
100
AcDbLine
 62
7
  6
CONTINUOUS
 10
2320.8064006838
 20
1128.2779849994
 11
2318.9964713607
 21
1126.4680556763
  0
LINE
  5
478
100
AcDbEntity
  8
0
100
AcDbLine
 62
6
  6
CONTINUOUS
 10
2375.2914461076
 20
1139.9580556763
 11
2375.3303285023
 21
1139.996938071
  0
LINE
  5
479
100
AcDbEntity
  8
000-SPOJ_MAT
100
AcDbLine
 62
7
  6
CONTINUOUS
 10
2389.9864208544
 20
1134.8680556763
 11
2388.1764915313
 21
1133.0581263532
  0
LINE
  5
47A
100
AcDbEntity
  8
000-SPOJ_MAT
100
AcDbLine
 62
7
  6
CONTINUOUS
 10
2407.8064006838
 20
1128.2779849994
 11
2405.9964713607
 21
1126.4680556763
  0
LINE
  5
47B
100
AcDbEntity
  8
0
100
AcDbLine
 62
6
  6
CONTINUOUS
 10
2379.2379560797
 20
1137.0680556763
 11
2378.9913063389
 21
1136.835325567
  0
LINE
  5
47C
100
AcDbEntity
  8
0
100
AcDbLine
 62
6
  6
CONTINUOUS
 10
2367.9914461076
 20
1136.0680556763
 11
2369.0695461076
 21
1137.0680556763
  0
LINE
  5
47D
100
AcDbEntity
  8
ROUND
100
AcDbLine
 62
7
  6
CONTINUOUS
 10
1850.4914461076
 20
831.9679958969
 11
1850.4914461076
 21
929.4680556763
  0
LINE
  5
47E
100
AcDbEntity
  8
0
100
AcDbLine
 62
7
  6
CONTINUOUS
 10
1851.4914461076
 20
930.4680556763
 11
1851.4914461076
 21
1028.9680556763
  0
LINE
  5
47F
100
AcDbEntity
  8
0
100
AcDbLine
 62
7
  6
CONTINUOUS
 10
1886.9914461076
 20
1030.9680556763
 11
1886.9914461076
 21
1061.9680556763
  0
LINE
  5
480
100
AcDbEntity
  8
0
100
AcDbLine
 62
7
  6
CONTINUOUS
 10
1888.4914461076
 20
1164.4680556763
 11
1888.4914461076
 21
1119.4680556763
  0
LINE
  5
481
100
AcDbEntity
  8
ROUND
100
AcDbLine
 62
7
  6
CONTINUOUS
 10
1892.9914461076
 20
934.4623330672
 11
1892.9914461076
 21
929.9776133754
  0
LINE
  5
482
100
AcDbEntity
  8
0
100
AcDbLine
 62
7
  6
CONTINUOUS
 10
1892.9914461076
 20
934.4623330672
 11
1892.9914461076
 21
1030.9091785599
  0
LINE
  5
483
100
AcDbEntity
  8
0
100
AcDbLine
 62
7
  6
CONTINUOUS
 10
1892.9914461076
 20
1030.9680556763
 11
1892.9914461076
 21
1061.9680556763
  0
LINE
  5
484
100
AcDbEntity
  8
ROUND
100
AcDbLine
 62
7
  6
CONTINUOUS
 10
1893.9914461076
 20
1046.3900341921
 11
1893.9914461076
 21
1042.1900341921
  0
LINE
  5
485
100
AcDbEntity
  8
000-SPOJ_MAT
100
AcDbLine
 62
7
  6
CONTINUOUS
 10
1893.9914461076
 20
1113.092319745
 11
1893.9914461076
 21
1119.0437916076
  0
LINE
  5
486
100
AcDbEntity
  8
000-SPOJ_MAT
100
AcDbLine
 62
7
  6
CONTINUOUS
 10
1893.9914461076
 20
1126.892319745
 11
1893.9914461076
 21
1132.8437916076
  0
LINE
  5
487
100
AcDbEntity
  8
ROUND
100
AcDbLine
 62
9
  6
CONTINUOUS
 10
1895.4914461076
 20
1038.2913675031
 11
1895.4914461076
 21
1041.3892544705
  0
LINE
  5
488
100
AcDbEntity
  8
ROUND
100
AcDbLine
 62
9
  6
CONTINUOUS
 10
1895.7914461076
 20
1042.1900341921
 11
1895.7914461076
 21
1048.1900341921
  0
LINE
  5
489
100
AcDbEntity
  8
0
100
AcDbLine
 62
7
  6
CONTINUOUS
 10
1896.4914461076
 20
1065.4680556763
 11
1896.4914461076
 21
1112.6680556763
  0
LINE
  5
48A
100
AcDbEntity
  8
0
100
AcDbLine
 62
7
  6
CONTINUOUS
 10
1896.4914461076
 20
1133.2680556763
 11
1896.4914461076
 21
1135.6680556763
  0
LINE
  5
48B
100
AcDbEntity
  8
000-SPOJ_MAT
100
AcDbLine
 62
7
  6
CONTINUOUS
 10
1900.4914461076
 20
1131.8382381081
 11
1900.4914461076
 21
1127.8978732445
  0
LINE
  5
48C
100
AcDbEntity
  8
000-SPOJ_MAT
100
AcDbLine
 62
7
  6
CONTINUOUS
 10
1900.4914461076
 20
1114.0978732445
 11
1900.4914461076
 21
1118.0382381081
  0
LINE
  5
48D
100
AcDbEntity
  8
0
100
AcDbLine
 62
7
  6
CONTINUOUS
 10
1904.4914461076
 20
1065.4680556763
 11
1904.4914461076
 21
1112.6680556763
  0
LINE
  5
48E
100
AcDbEntity
  8
0
100
AcDbLine
 62
7
  6
CONTINUOUS
 10
1904.4914461076
 20
1133.2680556763
 11
1904.4914461076
 21
1135.6680556763
  0
LINE
  5
48F
100
AcDbEntity
  8
ROUND
100
AcDbLine
 62
9
  6
CONTINUOUS
 10
1905.1914461076
 20
1042.1900341921
 11
1905.1914461076
 21
1048.1900341921
  0
LINE
  5
490
100
AcDbEntity
  8
ROUND
100
AcDbLine
 62
9
  6
CONTINUOUS
 10
1905.4914461076
 20
1038.2913675031
 11
1905.4914461076
 21
1041.3892544705
  0
LINE
  5
491
100
AcDbEntity
  8
AXIS
100
AcDbLine
 62
7
  6
CONTINUOUS
 10
1905.9914461076
 20
1059.4680556763
 11
1905.9914461076
 21
1039.4680556763
  0
LINE
  5
492
100
AcDbEntity
  8
000-SPOJ_MAT
100
AcDbLine
 62
7
  6
CONTINUOUS
 10
1906.9914461076
 20
1132.8437916076
 11
1906.9914461076
 21
1126.892319745
  0
LINE
  5
493
100
AcDbEntity
  8
AXIS
100
AcDbLine
 62
7
  6
CONTINUOUS
 10
1906.9914461076
 20
1060.9680556763
 11
1906.9914461076
 21
1059.4680556763
  0
LINE
  5
494
100
AcDbEntity
  8
000-SPOJ_MAT
100
AcDbLine
 62
7
  6
CONTINUOUS
 10
1906.9914461076
 20
1113.092319745
 11
1906.9914461076
 21
1119.0437916076
  0
LINE
  5
495
100
AcDbEntity
  8
AXIS
100
AcDbLine
 62
7
  6
CONTINUOUS
 10
1907.9914461076
 20
1061.9680556763
 11
1907.9914461076
 21
1060.9680556763
  0
LINE
  5
496
100
AcDbEntity
  8
0
100
AcDbLine
 62
7
  6
CONTINUOUS
 10
1907.9914461076
 20
1039.4680556763
 11
1907.9914461076
 21
1030.9680556763
  0
LINE
  5
497
100
AcDbEntity
  8
ROUND
100
AcDbLine
 62
7
  6
CONTINUOUS
 10
1907.9914461076
 20
934.4623330672
 11
1907.9914461076
 21
929.9776133754
  0
LINE
  5
498
100
AcDbEntity
  8
0
100
AcDbLine
 62
7
  6
CONTINUOUS
 10
1907.9914461076
 20
934.4623330672
 11
1907.9914461076
 21
1030.9091785599
  0
LINE
  5
499
100
AcDbEntity
  8
AXIS
100
AcDbLine
 62
7
  6
CONTINUOUS
 10
1910.9914461076
 20
1059.4680556763
 11
1910.9914461076
 21
1039.4680556763
  0
LINE
  5
49A
100
AcDbEntity
  8
AXIS
100
AcDbLine
 62
7
  6
CONTINUOUS
 10
1913.9914461076
 20
1061.9680556763
 11
1913.9914461076
 21
1060.9680556763
  0
LINE
  5
49B
100
AcDbEntity
  8
0
100
AcDbLine
 62
7
  6
CONTINUOUS
 10
1913.9914461076
 20
1039.4680556763
 11
1913.9914461076
 21
1030.9680556763
  0
LINE
  5
49C
100
AcDbEntity
  8
AXIS
100
AcDbLine
 62
7
  6
CONTINUOUS
 10
1914.9914461076
 20
1060.9680556763
 11
1914.9914461076
 21
1059.4680556763
  0
LINE
  5
49D
100
AcDbEntity
  8
AXIS
100
AcDbLine
 62
7
  6
CONTINUOUS
 10
1915.9914461076
 20
1059.4680556763
 11
1915.9914461076
 21
1039.4680556763
  0
LINE
  5
49E
100
AcDbEntity
  8
0
100
AcDbLine
 62
7
  6
CONTINUOUS
 10
1949.4914461076
 20
930.4680556763
 11
1949.4914461076
 21
1028.9680556763
  0
LINE
  5
49F
100
AcDbEntity
  8
ROUND
100
AcDbLine
 62
7
  6
CONTINUOUS
 10
1950.4914461076
 20
831.9680556763
 11
1950.4914461076
 21
929.4680556763
  0
LINE
  5
4A0
100
AcDbEntity
  8
0
100
AcDbLine
 62
6
  6
CONTINUOUS
 10
2382.4914461076
 20
1120.1980556763
 11
2382.2257461076
 21
1119.4680556763
  0
LINE
  5
4A1
100
AcDbEntity
  8
0
100
AcDbLine
 62
6
  6
CONTINUOUS
 10
2383.6414461076
 20
1122.7530556763
 11
2382.9774461076
 21
1120.9280556763
  0
LINE
  5
4A2
100
AcDbEntity
  8
0
100
AcDbLine
 62
7
  6
CONTINUOUS
 10
2353.1514687453
 20
1136.4507853368
 11
2352.9914461076
 21
1135.7180556763
  0
LINE
  5
4A3
100
AcDbEntity
  8
0
100
AcDbLine
 62
7
  6
CONTINUOUS
 10
2088.4914461076
 20
1119.4680556763
 11
2088.4914461076
 21
1109.4680556763
  0
LINE
  5
4A4
100
AcDbEntity
  8
0
100
AcDbLine
 62
7
  6
CONTINUOUS
 10
2118.4914461076
 20
1119.4680556763
 11
2118.4914461076
 21
1109.4680556763
  0
LINE
  5
4A5
100
AcDbEntity
  8
0
100
AcDbLine
 62
9
  6
CONTINUOUS
 10
2372.0846511604
 20
1132.3159209333
 11
2371.764605885
 21
1130.8504616123
  0
LINE
  5
4A6
100
AcDbEntity
  8
0
100
AcDbLine
 62
7
  6
CONTINUOUS
 10
2390.918030882
 20
1168.9721754129
 11
2390.9738404974
 21
1169.2257923725
  0
LWPOLYLINE
  5
4A7
100
AcDbEntity
  8
0
100
AcDbPolyline
 62
7
  6
CONTINUOUS
 90
21
 70
0
 10
2383.3241947279
 20
1169.9757923725
 10
2383.4946150225
 20
1170.7325077934
 10
2383.8062461366
 20
1171.5395536492
 10
2384.2336115274
 20
1172.2955463907
 10
2384.7680112678
 20
1172.9850961858
 10
2385.3985665204
 20
1173.5941657891
 10
2386.1124409985
 20
1174.1103563
 10
2386.8951022763
 20
1174.5231595682
 10
2387.7306176273
 20
1174.8241721097
 10
2388.6019783683
 20
1175.007266177
 10
2389.4914461076
 20
1175.068714503
 10
2390.3809138468
 20
1175.007266177
 10
2391.2522745878
 20
1174.8241721097
 10
2392.0877899388
 20
1174.5231595682
 10
2392.8704512167
 20
1174.1103563
 10
2393.5843256947
 20
1173.5941657891
 10
2394.2148809473
 20
1172.9850961858
 10
2394.7492806878
 20
1172.2955463907
 10
2395.1766460785
 20
1171.5395536492
 10
2395.4882771926
 20
1170.7325077934
 10
2395.6778301193
 20
1169.8908379496
  0
LINE
  5
4A8
100
AcDbEntity
  8
AXIS
100
AcDbLine
 62
7
  6
CONTINUOUS
 10
2298.4914461076
 20
1098.6680556763
 11
2298.4914461076
 21
1119.4680556763
  0
LINE
  5
4A9
100
AcDbEntity
  8
000-SPOJ_MAT
100
AcDbLine
 62
7
  6
CONTINUOUS
 10
2301.1764915313
 20
1128.2779849994
 11
2301.1764915313
 21
1133.0581263532
  0
LINE
  5
4AA
100
AcDbEntity
  8
000-SPOJ_MAT
100
AcDbLine
 62
7
  6
CONTINUOUS
 10
2302.9864208544
 20
1135.6680556763
 11
2302.9864208544
 21
1134.8680556763
  0
LINE
  5
4AB
100
AcDbEntity
  8
0
100
AcDbLine
 62
7
  6
CONTINUOUS
 10
2302.9914461076
 20
1098.6680556763
 11
2302.9914461076
 21
1088.6680556763
  0
LINE
  5
4AC
100
AcDbEntity
  8
0
100
AcDbLine
 62
7
  6
CONTINUOUS
 10
2305.9914461076
 20
1138.6680556763
 11
2305.9914461076
 21
1136.4680556763
  0
LINE
  5
4AD
100
AcDbEntity
  8
000-SPOJ_MAT
100
AcDbLine
 62
7
  6
CONTINUOUS
 10
2306.0839688194
 20
1128.2779849994
 11
2306.0839688194
 21
1133.0581263532
  0
LINE
  5
4AE
100
AcDbEntity
  8
000-SPOJ_MAT
100
AcDbLine
 62
7
  6
CONTINUOUS
 10
2315.8989233957
 20
1128.2779849994
 11
2315.8989233957
 21
1133.0581263532
  0
LINE
  5
4AF
100
AcDbEntity
  8
0
100
AcDbLine
 62
7
  6
CONTINUOUS
 10
2315.9914461076
 20
1138.6680556763
 11
2315.9914461076
 21
1136.4680556763
  0
LINE
  5
4B0
100
AcDbEntity
  8
0
100
AcDbLine
 62
7
  6
CONTINUOUS
 10
2318.9914461076
 20
1098.6680556763
 11
2318.9914461076
 21
1088.6680556763
  0
LINE
  5
4B1
100
AcDbEntity
  8
000-SPOJ_MAT
100
AcDbLine
 62
7
  6
CONTINUOUS
 10
2318.9964713607
 20
1135.6680556763
 11
2318.9964713607
 21
1134.8680556763
  0
LINE
  5
4B2
100
AcDbEntity
  8
000-SPOJ_MAT
100
AcDbLine
 62
7
  6
CONTINUOUS
 10
2320.8064006838
 20
1128.2779849994
 11
2320.8064006838
 21
1133.0581263532
  0
LINE
  5
4B3
100
AcDbEntity
  8
AXIS
100
AcDbLine
 62
7
  6
CONTINUOUS
 10
2323.4914461076
 20
1110.6680556763
 11
2323.4914461076
 21
1119.4680556763
  0
LINE
  5
4B4
100
AcDbEntity
  8
AXIS
100
AcDbLine
 62
7
  6
CONTINUOUS
 10
2324.4914461076
 20
1029.4680556763
 11
2324.4914461076
 21
1099.4680556763
  0
LINE
  5
4B5
100
AcDbEntity
  8
0
100
AcDbLine
 62
7
  6
CONTINUOUS
 10
2324.4914461076
 20
1110.6680556763
 11
2324.4914461076
 21
1112.4680556763
  0
LINE
  5
4B6
100
AcDbEntity
  8
AXIS
100
AcDbLine
 62
7
  6
CONTINUOUS
 10
2324.4914461076
 20
1112.4680556763
 11
2324.4914461076
 21
1119.4680556763
  0
LINE
  5
4B7
100
AcDbEntity
  8
AXIS
100
AcDbLine
 62
7
  6
CONTINUOUS
 10
2338.4914461076
 20
1110.6680556763
 11
2338.4914461076
 21
1099.4680556763
  0
LINE
  5
4B8
100
AcDbEntity
  8
AXIS
100
AcDbLine
 62
7
  6
CONTINUOUS
 10
2339.4914461076
 20
1099.4680556763
 11
2339.4914461076
 21
1112.4680556763
  0
LINE
  5
4B9
100
AcDbEntity
  8
0
100
AcDbLine
 62
7
  6
CONTINUOUS
 10
2344.9914461076
 20
1134.3680556763
 11
2344.9914461076
 21
1138.5680556763
  0
LWPOLYLINE
  5
4BA
100
AcDbEntity
  8
0
100
AcDbPolyline
 62
7
  6
CONTINUOUS
 90
15
 70
0
 10
2335.3078121886
 20
1145.8731936245
 10
2335.3351321144
 20
1146.7466529031
 10
2335.7354249486
 20
1149.5795127937
 10
2336.4867337238
 20
1152.2413306935
 10
2337.4910302954
 20
1154.7229657298
 10
2338.6958100509
 20
1157.0279425256
 10
2340.0785276532
 20
1159.1659263127
 10
2341.6296377187
 20
1161.1340340619
 10
2343.3423440279
 20
1162.9165831586
 10
2345.2065358737
 20
1164.4798751282
 10
2347.1854529542
 20
1165.771791756
 10
2349.2313111596
 20
1166.7517272476
 10
2351.4294086839
 20
1167.4280142866
 10
2353.8559244642
 20
1167.741660905
 10
2356.4914461076
 20
1167.725599025
  0
LWPOLYLINE
  5
4BB
100
AcDbEntity
  8
0
100
AcDbPolyline
 62
7
  6
CONTINUOUS
 90
23
 70
0
 10
2383.2833807411
 20
1169.9862509817
 10
2383.3050620958
 20
1170.2790665173
 10
2383.4946150225
 20
1171.1207363611
 10
2383.8062461366
 20
1171.9277822169
 10
2384.2336115274
 20
1172.6837749584
 10
2384.7680112678
 20
1173.3733247535
 10
2385.3985665204
 20
1173.9823943568
 10
2386.1124409985
 20
1174.4985848677
 10
2386.8951022763
 20
1174.9113881359
 10
2387.7306176273
 20
1175.2124006773
 10
2388.6019783683
 20
1175.3954947446
 10
2389.4914461076
 20
1175.4569430706
 10
2390.3809138468
 20
1175.3954947446
 10
2391.2522745878
 20
1175.2124006773
 10
2392.0877899388
 20
1174.9113881359
 10
2392.8704512167
 20
1174.4985848677
 10
2393.5843256947
 20
1173.9823943568
 10
2394.2148809473
 20
1173.3733247535
 10
2394.7492806878
 20
1172.6837749584
 10
2395.1766460785
 20
1171.9277822169
 10
2395.4882771926
 20
1171.1207363611
 10
2395.6778301193
 20
1170.2790665173
 10
2395.7414461076
 20
1169.4199066563
  0
LWPOLYLINE
  5
4BC
100
AcDbEntity
  8
0
100
AcDbPolyline
 62
7
  6
CONTINUOUS
 90
12
 70
0
 10
2332.3078327572
 20
1145.8449454626
 10
2332.3922183978
 20
1144.1812851182
 10
2332.6582851758
 20
1142.5638038311
 10
2333.1261933559
 20
1141.0139753562
 10
2333.8285629864
 20
1139.5393594007
 10
2334.7945869461
 20
1138.1810770924
 10
2336.0060712423
 20
1137.02885265
 10
2337.3900370862
 20
1136.1408637875
 10
2338.8942042778
 20
1135.5149636097
 10
2340.5827917383
 20
1135.1147243211
 10
2342.65414404
 20
1134.9424329231
 10
2344.9914461076
 20
1134.9678544081
  0
LWPOLYLINE
  5
4BD
100
AcDbEntity
  8
0
100
AcDbPolyline
 62
9
  6
CONTINUOUS
 90
6
 70
0
 10
2383.264605885
 20
1169.2257923725
 10
2383.2724379503
 20
1168.9940296267
 10
2383.2951674893
 20
1168.7849534333
 10
2383.3305695762
 20
1168.6190296267
 10
2383.3751788081
 20
1168.5124999853
 10
2383.4246285227
 20
1168.4757923725
  0
LINE
  5
4BE
100
AcDbEntity
  8
0
100
AcDbLine
 62
7
  6
CONTINUOUS
 10
2352.9914461076
 20
1134.3680556763
 11
2352.9914461076
 21
1138.5680556763
  0
LINE
  5
4BF
100
AcDbEntity
  8
0
100
AcDbLine
 62
7
  6
CONTINUOUS
 10
2356.4914461076
 20
1167.1257923725
 11
2356.4914461076
 21
1171.3257923725
  0
LINE
  5
4C0
100
AcDbEntity
  8
0
100
AcDbLine
 62
7
  6
CONTINUOUS
 10
2364.4914461076
 20
1167.1257923725
 11
2364.4914461076
 21
1171.3257923725
  0
LINE
  5
4C1
100
AcDbEntity
  8
0
100
AcDbLine
 62
6
  6
CONTINUOUS
 10
2367.9914461076
 20
1136.0680556763
 11
2367.9914461076
 21
1134.0680556763
  0
LINE
  5
4C2
100
AcDbEntity
  8
AXIS
100
AcDbLine
 62
7
  6
CONTINUOUS
 10
2369.4914461076
 20
1112.4680556763
 11
2369.4914461076
 21
1101.4680556763
  0
LINE
  5
4C3
100
AcDbEntity
  8
AXIS
100
AcDbLine
 62
7
  6
CONTINUOUS
 10
2370.4914461076
 20
1101.4680556763
 11
2370.4914461076
 21
1110.6680556763
  0
LINE
  5
4C4
100
AcDbEntity
  8
0
100
AcDbLine
 62
6
  6
CONTINUOUS
 10
2372.3414461076
 20
1130.7949361635
 11
2372.3414461076
 21
1122.7530556763
  0
LINE
  5
4C5
100
AcDbEntity
  8
0
100
AcDbLine
 62
6
  6
CONTINUOUS
 10
2373.4914461076
 20
1120.9280556763
 11
2373.4914461076
 21
1120.1980556763
  0
LINE
  5
4C6
100
AcDbEntity
  8
0
100
AcDbLine
 62
6
  6
CONTINUOUS
 10
2374.9914461076
 20
1112.4680556763
 11
2374.9914461076
 21
1110.6680556763
  0
LINE
  5
4C7
100
AcDbEntity
  8
0
100
AcDbLine
 62
6
  6
CONTINUOUS
 10
2375.2914461076
 20
1139.9580556763
 11
2375.2914461076
 21
1137.0680556763
  0
LINE
  5
4C8
100
AcDbEntity
  8
0
100
AcDbLine
 62
6
  6
CONTINUOUS
 10
2380.6914461076
 20
1137.0680556763
 11
2380.6914461076
 21
1139.9580556763
  0
LINE
  5
4C9
100
AcDbEntity
  8
0
100
AcDbLine
 62
6
  6
CONTINUOUS
 10
2380.9914461076
 20
1110.6680556763
 11
2380.9914461076
 21
1112.4680556763
  0
LINE
  5
4CA
100
AcDbEntity
  8
0
100
AcDbLine
 62
6
  6
CONTINUOUS
 10
2382.4914461076
 20
1120.1980556763
 11
2382.4914461076
 21
1120.9280556763
  0
LINE
  5
4CB
100
AcDbEntity
  8
0
100
AcDbLine
 62
7
  6
CONTINUOUS
 10
2383.2414461076
 20
1152.9680556763
 11
2383.2414461076
 21
1168.4757923725
  0
LINE
  5
4CC
100
AcDbEntity
  8
0
100
AcDbLine
 62
6
  6
CONTINUOUS
 10
2383.6414461076
 20
1122.7530556763
 11
2383.6414461076
 21
1131.8930556763
  0
LINE
  5
4CD
100
AcDbEntity
  8
AXIS
100
AcDbLine
 62
7
  6
CONTINUOUS
 10
2384.4914461076
 20
1119.4680556763
 11
2384.4914461076
 21
1112.4680556763
  0
LINE
  5
4CE
100
AcDbEntity
  8
0
100
AcDbLine
 62
7
  6
CONTINUOUS
 10
2384.4914461076
 20
1112.4680556763
 11
2384.4914461076
 21
1110.6680556763
  0
LINE
  5
4CF
100
AcDbEntity
  8
AXIS
100
AcDbLine
 62
7
  6
CONTINUOUS
 10
2384.4914461076
 20
1101.4680556763
 11
2384.4914461076
 21
1029.4680556763
  0
LINE
  5
4D0
100
AcDbEntity
  8
AXIS
100
AcDbLine
 62
7
  6
CONTINUOUS
 10
2385.4914461076
 20
1110.6680556763
 11
2385.4914461076
 21
1119.4680556763
  0
LINE
  5
4D1
100
AcDbEntity
  8
0
100
AcDbLine
 62
6
  6
CONTINUOUS
 10
2387.9914461076
 20
1134.0680556763
 11
2387.9914461076
 21
1136.0680556763
  0
LINE
  5
4D2
100
AcDbEntity
  8
000-SPOJ_MAT
100
AcDbLine
 62
7
  6
CONTINUOUS
 10
2388.1764915313
 20
1128.2779849994
 11
2388.1764915313
 21
1133.0581263532
  0
LINE
  5
4D3
100
AcDbEntity
  8
0
100
AcDbLine
 62
7
  6
CONTINUOUS
 10
2388.2414461076
 20
1152.2463678398
 11
2388.2414461076
 21
1153.6897435128
  0
LINE
  5
4D4
100
AcDbEntity
  8
000-SPOJ_MAT
100
AcDbLine
 62
7
  6
CONTINUOUS
 10
2389.9864208544
 20
1135.6680556763
 11
2389.9864208544
 21
1134.8680556763
  0
LINE
  5
4D5
100
AcDbEntity
  8
0
100
AcDbLine
 62
7
  6
CONTINUOUS
 10
2389.9914461076
 20
1100.6680556763
 11
2389.9914461076
 21
1090.6680556763
  0
LINE
  5
4D6
100
AcDbEntity
  8
0
100
AcDbLine
 62
7
  6
CONTINUOUS
 10
2390.7414461076
 20
1153.6897435128
 11
2390.7414461076
 21
1152.2463678398
  0
LINE
  5
4D7
100
AcDbEntity
  8
0
100
AcDbLine
 62
7
  6
CONTINUOUS
 10
2392.9914461076
 20
1140.6680556763
 11
2392.9914461076
 21
1136.4680556763
  0
LINE
  5
4D8
100
AcDbEntity
  8
000-SPOJ_MAT
100
AcDbLine
 62
7
  6
CONTINUOUS
 10
2393.0839688194
 20
1128.2779849994
 11
2393.0839688194
 21
1133.0581263532
  0
LINE
  5
4D9
100
AcDbEntity
  8
0
100
AcDbLine
 62
7
  6
CONTINUOUS
 10
2395.7414461076
 20
1152.9680556763
 11
2395.7414461076
 21
1169.0316780887
  0
LINE
  5
4DA
100
AcDbEntity
  8
000-SPOJ_MAT
100
AcDbLine
 62
7
  6
CONTINUOUS
 10
2402.8989233957
 20
1128.2779849994
 11
2402.8989233957
 21
1133.0581263532
  0
LINE
  5
4DB
100
AcDbEntity
  8
0
100
AcDbLine
 62
7
  6
CONTINUOUS
 10
2402.9914461076
 20
1140.6680556763
 11
2402.9914461076
 21
1136.4680556763
  0
LINE
  5
4DC
100
AcDbEntity
  8
0
100
AcDbLine
 62
7
  6
CONTINUOUS
 10
2405.9914461076
 20
1100.6680556763
 11
2405.9914461076
 21
1090.6680556763
  0
LINE
  5
4DD
100
AcDbEntity
  8
000-SPOJ_MAT
100
AcDbLine
 62
7
  6
CONTINUOUS
 10
2405.9964713607
 20
1135.6680556763
 11
2405.9964713607
 21
1134.8680556763
  0
LINE
  5
4DE
100
AcDbEntity
  8
000-SPOJ_MAT
100
AcDbLine
 62
7
  6
CONTINUOUS
 10
2407.8064006838
 20
1128.2779849994
 11
2407.8064006838
 21
1133.0581263532
  0
LINE
  5
4DF
100
AcDbEntity
  8
AXIS
100
AcDbLine
 62
7
  6
CONTINUOUS
 10
2410.4914461076
 20
1100.6680556763
 11
2410.4914461076
 21
1119.4680556763
  0
LINE
  5
4E0
100
AcDbEntity
  8
0
100
AcDbLine
 62
7
  6
CONTINUOUS
 10
2395.6778301193
 20
1169.8908379496
 11
2395.7414461076
 21
1169.0316780887
  0
LINE
  5
4E1
100
AcDbEntity
  8
0
100
AcDbLine
 62
7
  6
CONTINUOUS
 10
2390.9913787092
 20
1169.0316780887
 11
2390.9832289506
 21
1169.1831282021
  0
LINE
  5
4E2
100
AcDbEntity
  8
0
100
AcDbLine
 62
7
  6
CONTINUOUS
 10
2470.4914461076
 20
1164.4680556763
 11
2470.4914461076
 21
1119.4680556763
  0
LINE
  5
4E3
100
AcDbEntity
  8
0
100
AcDbLine
 62
7
  6
CONTINUOUS
 10
2353.1514687453
 20
1136.4853260158
 11
2352.9914461076
 21
1137.2180556763
  0
LWPOLYLINE
  5
4E4
100
AcDbEntity
  8
0
100
AcDbPolyline
 62
7
  6
CONTINUOUS
 90
8
 70
0
 10
2390.9832289506
 20
1169.1831282021
 10
2390.918030882
 20
1169.4794093321
 10
2390.7904842132
 20
1169.7561224584
 10
2390.6061633458
 20
1170.0011738894
 10
2390.373123986
 20
1170.2038537018
 10
2390.1015510722
 20
1170.3553038152
 10
2389.8033136438
 20
1170.4489051329
 10
2389.4914461076
 20
1170.4805668281
  0
LINE
  5
4E5
100
AcDbEntity
  8
0
100
AcDbLine
 62
9
  6
CONTINUOUS
 10
2372.0846511604
 20
1140.6201904193
 11
2371.764605885
 21
1142.0856497403
  0
LINE
  5
4E6
100
AcDbEntity
  8
0
100
AcDbLine
 62
6
  6
CONTINUOUS
 10
2373.7571461076
 20
1119.4680556763
 11
2373.4914461076
 21
1120.1980556763
  0
LINE
  5
4E7
100
AcDbEntity
  8
0
100
AcDbLine
 62
6
  6
CONTINUOUS
 10
2373.0054461076
 20
1120.9280556763
 11
2372.3414461076
 21
1122.7530556763
  0
LINE
  5
4E8
100
AcDbEntity
  8
000-SPOJ_MAT
100
AcDbLine
 62
7
  6
CONTINUOUS
 10
1893.9914461076
 20
1113.092319745
 11
1894.4157101763
 21
1112.6680556763
  0
LINE
  5
4E9
100
AcDbEntity
  8
000-SPOJ_MAT
100
AcDbLine
 62
7
  6
CONTINUOUS
 10
1893.9914461076
 20
1126.892319745
 11
1894.4157101763
 21
1126.4680556763
  0
LINE
  5
4EA
100
AcDbEntity
  8
000-SPOJ_MAT
100
AcDbLine
 62
7
  6
CONTINUOUS
 10
1906.9914461076
 20
1119.0437916076
 11
1906.5671820388
 21
1119.4680556763
  0
LINE
  5
4EB
100
AcDbEntity
  8
000-SPOJ_MAT
100
AcDbLine
 62
7
  6
CONTINUOUS
 10
1906.9914461076
 20
1132.8437916076
 11
1906.5671820388
 21
1133.2680556763
  0
LINE
  5
4EC
100
AcDbEntity
  8
0
100
AcDbLine
 62
7
  6
CONTINUOUS
 10
1903.6914461076
 20
1136.4680556763
 11
1904.4914461076
 21
1135.6680556763
  0
LWPOLYLINE
  5
4ED
100
AcDbEntity
  8
0
100
AcDbPolyline
 62
7
  6
CONTINUOUS
 90
7
 70
0
 10
2388.1147134774
 20
1168.4757923725
 10
2388.1924080019
 20
1168.307233719
 10
2388.3767288693
 20
1168.0621822879
 10
2388.6097682291
 20
1167.8595024755
 10
2388.8813411429
 20
1167.7080523621
 10
2389.1795785713
 20
1167.6144510445
 10
2389.4914461076
 20
1167.5827893492
  0
LINE
  5
4EE
100
AcDbEntity
  8
0
100
AcDbLine
 62
7
  6
CONTINUOUS
 10
1850.4914461076
 20
828.9681154557
 11
1950.4914461076
 21
828.9681154557
  0
LINE
  5
4EF
100
AcDbEntity
  8
0
100
AcDbLine
 62
7
  6
CONTINUOUS
 10
1850.4914461076
 20
831.9679958969
 11
1950.4914461076
 21
831.9679958969
  0
LWPOLYLINE
  5
4F0
100
AcDbEntity
  8
000-SPOJ_MAT
100
AcDbPolyline
 62
7
  6
CONTINUOUS
 90
11
 70
0
 10
1893.9914461076
 20
1114.0978732445
 10
1894.7032368826
 20
1113.7225377005
 10
1895.3675168694
 20
1113.4430239219
 10
1896.0039998012
 20
1113.2475205545
 10
1896.6257888945
 20
1113.1310794443
 10
1897.2415080688
 20
1113.0923197454
 10
1897.8572257496
 20
1113.1310948156
 10
1898.4790269314
 20
1113.2475539052
 10
1899.115493836
 20
1113.4430671386
 10
1899.7798575163
 20
1113.722633668
 10
1900.4914461076
 20
1114.0978732445
  0
LWPOLYLINE
  5
4F1
100
AcDbEntity
  8
000-SPOJ_MAT
100
AcDbPolyline
 62
7
  6
CONTINUOUS
 90
11
 70
0
 10
1900.4914461076
 20
1114.0978732445
 10
1901.2032368826
 20
1113.7225377005
 10
1901.8675168694
 20
1113.4430239219
 10
1902.5039998012
 20
1113.2475205545
 10
1903.1257888945
 20
1113.1310794443
 10
1903.7415080688
 20
1113.0923197454
 10
1904.3572257496
 20
1113.1310948156
 10
1904.9790269314
 20
1113.2475539052
 10
1905.615493836
 20
1113.4430671386
 10
1906.2798575163
 20
1113.722633668
 10
1906.9914461076
 20
1114.0978732445
  0
LWPOLYLINE
  5
4F2
100
AcDbEntity
  8
000-SPOJ_MAT
100
AcDbPolyline
 62
7
  6
CONTINUOUS
 90
11
 70
0
 10
1900.4914461076
 20
1118.0382381081
 10
1899.7798602803
 20
1118.4134763726
 10
1899.1155002343
 20
1118.6930418802
 10
1898.4790332213
 20
1118.8885558878
 10
1897.8572292148
 20
1119.0050161019
 10
1897.24150723
 20
1119.0437916072
 10
1896.6257837567
 20
1119.0050312633
 10
1896.0039918456
 20
1118.8885888257
 10
1895.3675084897
 20
1118.6930843744
 10
1894.7032330086
 20
1118.4135718133
 10
1893.9914461076
 20
1118.0382381081
  0
LWPOLYLINE
  5
4F3
100
AcDbEntity
  8
000-SPOJ_MAT
100
AcDbPolyline
 62
7
  6
CONTINUOUS
 90
11
 70
0
 10
1906.9914461076
 20
1118.0382381081
 10
1906.2796553367
 20
1118.4135736501
 10
1905.6153753483
 20
1118.6930874297
 10
1904.9788924132
 20
1118.8885907983
 10
1904.3571033167
 20
1119.0050319088
 10
1903.7413841398
 20
1119.0437916072
 10
1903.1256664583
 20
1119.0050165361
 10
1902.5038652782
 20
1118.888557446
 10
1901.8673983737
 20
1118.693044212
 10
1901.2030347069
 20
1118.4134776885
 10
1900.4914461076
 20
1118.0382381081
  0
LWPOLYLINE
  5
4F4
100
AcDbEntity
  8
000-SPOJ_MAT
100
AcDbPolyline
 62
7
  6
CONTINUOUS
 90
11
 70
0
 10
1893.9914461076
 20
1127.8978732445
 10
1894.7032368784
 20
1127.5225377025
 10
1895.3675168668
 20
1127.2430239229
 10
1896.0039998019
 20
1127.0475205543
 10
1896.6257888985
 20
1126.9310794438
 10
1897.2415080753
 20
1126.8923197454
 10
1897.8572257569
 20
1126.9310948165
 10
1898.4790269369
 20
1127.0475539066
 10
1899.1154938414
 20
1127.2430671406
 10
1899.7798575082
 20
1127.5226336641
 10
1900.4914461076
 20
1127.8978732445
  0
LWPOLYLINE
  5
4F5
100
AcDbEntity
  8
000-SPOJ_MAT
100
AcDbPolyline
 62
7
  6
CONTINUOUS
 90
11
 70
0
 10
1900.4914461076
 20
1127.8978732445
 10
1901.2030319348
 20
1127.52263498
 10
1901.8673919808
 20
1127.2430694724
 10
1902.5038589939
 20
1127.0475554648
 10
1903.1256630003
 20
1126.9310952507
 10
1903.7413849851
 20
1126.8923197454
 10
1904.3571084584
 20
1126.9310800893
 10
1904.9789003696
 20
1127.0475225268
 10
1905.6153837254
 20
1127.2430269781
 10
1906.2796592065
 20
1127.5225395393
 10
1906.9914461076
 20
1127.8978732445
  0
LWPOLYLINE
  5
4F6
100
AcDbEntity
  8
000-SPOJ_MAT
100
AcDbPolyline
 62
7
  6
CONTINUOUS
 90
11
 70
0
 10
1900.4914461076
 20
1131.8382381081
 10
1899.7796553325
 20
1132.2135736521
 10
1899.1153753457
 20
1132.4930874307
 10
1898.4788924139
 20
1132.6885907981
 10
1897.8571033206
 20
1132.8050319083
 10
1897.2413841463
 20
1132.8437916072
 10
1896.6256664656
 20
1132.805016537
 10
1896.0038652837
 20
1132.6885574474
 10
1895.3673983791
 20
1132.493044214
 10
1894.7030346988
 20
1132.2134776846
 10
1893.9914461076
 20
1131.8382381081
  0
LWPOLYLINE
  5
4F7
100
AcDbEntity
  8
000-SPOJ_MAT
100
AcDbPolyline
 62
7
  6
CONTINUOUS
 90
11
 70
0
 10
1906.9914461076
 20
1131.8382381081
 10
1906.2796553325
 20
1132.2135736521
 10
1905.6153753457
 20
1132.4930874307
 10
1904.9788924139
 20
1132.6885907981
 10
1904.3571033206
 20
1132.8050319083
 10
1903.7413841463
 20
1132.8437916072
 10
1903.1256664656
 20
1132.805016537
 10
1902.5038652837
 20
1132.6885574474
 10
1901.8673983791
 20
1132.493044214
 10
1901.2030346988
 20
1132.2134776846
 10
1900.4914461076
 20
1131.8382381081
  0
LINE
  5
4F8
100
AcDbEntity
  8
000-SPOJ_MAT
100
AcDbLine
 62
7
  6
CONTINUOUS
 10
2301.1764915313
 20
1128.2779849994
 11
2302.9864208544
 21
1126.4680556763
  0
LWPOLYLINE
  5
4F9
100
AcDbEntity
  8
ROUND
100
AcDbPolyline
 62
7
  6
CONTINUOUS
 90
6
 70
0
 10
1892.9914461076
 20
929.9776133754
 10
1894.9891725484
 20
930.0007761603
 10
1897.125006532
 20
930.0254477577
 10
1899.3572934153
 20
930.0409558665
 10
1901.6255977195
 20
930.0409558704
 10
1903.8578877481
 20
930.0254477374
  0
LINE
  5
4FA
100
AcDbEntity
  8
ROUND
100
AcDbLine
 62
9
  6
CONTINUOUS
 10
1950.4914461076
 20
929.4680550694
 11
1850.4914461076
 21
929.4680556763
  0
LINE
  5
4FB
100
AcDbEntity
  8
0
100
AcDbLine
 62
7
  6
CONTINUOUS
 10
1851.4914461076
 20
930.4680556763
 11
1892.9914461076
 21
930.4680556763
  0
LINE
  5
4FC
100
AcDbEntity
  8
ROUND
100
AcDbLine
 62
7
  6
CONTINUOUS
 10
1851.4914461076
 20
930.4680556763
 11
1892.9914461076
 21
930.4680556763
  0
LINE
  5
4FD
100
AcDbEntity
  8
0
100
AcDbLine
 62
7
  6
CONTINUOUS
 10
1907.9914461076
 20
930.4680556763
 11
1949.4914461076
 21
930.4680556763
  0
LINE
  5
4FE
100
AcDbEntity
  8
ROUND
100
AcDbLine
 62
7
  6
CONTINUOUS
 10
1907.9914461076
 20
930.4680556763
 11
1949.4914461076
 21
930.4680556763
  0
LINE
  5
4FF
100
AcDbEntity
  8
0
100
AcDbLine
 62
7
  6
CONTINUOUS
 10
1892.9914461076
 20
934.4623330672
 11
1907.9914461076
 21
934.4623330672
  0
LINE
  5
500
100
AcDbEntity
  8
ROUND
100
AcDbLine
 62
7
  6
CONTINUOUS
 10
1903.8578877481
 20
930.0254477374
 11
1907.9914461076
 21
929.9776133754
  0
LINE
  5
501
100
AcDbEntity
  8
0
100
AcDbLine
 62
7
  6
CONTINUOUS
 10
1925.7150332002
 20
1038.1934805357
 11
1944.8749208018
 21
1031.9680556763
  0
LWPOLYLINE
  5
502
100
AcDbEntity
  8
000-SPOJ_MAT
100
AcDbPolyline
 62
7
  6
CONTINUOUS
 90
11
 70
0
 10
2301.1764915313
 20
1128.2779849994
 10
2301.7137069967
 20
1127.7873129359
 10
2302.2152111057
 20
1127.4217756405
 10
2302.6958155642
 20
1127.1660484435
 10
2303.1653950934
 20
1127.013719671
 10
2303.6304233399
 20
1126.9630304319
 10
2304.095454975
 20
1127.0138044499
 10
2304.5650391488
 20
1127.1662178431
 10
2305.0456809083
 20
1127.4220483999
 10
2305.547087516
 20
1127.7875876919
 10
2306.0839688194
 20
1128.2779849994
  0
LWPOLYLINE
  5
503
100
AcDbEntity
  8
000-SPOJ_MAT
100
AcDbPolyline
 62
7
  6
CONTINUOUS
 90
11
 70
0
 10
2306.0839688194
 20
1133.0581263532
 10
2305.5470871857
 20
1133.5485239324
 10
2305.0456828803
 20
1133.9140617064
 10
2304.5650421035
 20
1134.1698922401
 10
2304.0954558014
 20
1134.3223067229
 10
2303.6304207618
 20
1134.3730809209
 10
2303.1653891621
 20
1134.3223903918
 10
2302.6958077978
 20
1134.1700595737
 10
2302.2152033669
 20
1133.9143308227
 10
2301.7137044502
 20
1133.5487963231
 10
2301.1764915313
 20
1133.0581263532
  0
LWPOLYLINE
  5
504
100
AcDbEntity
  8
000-SPOJ_MAT
100
AcDbPolyline
 62
7
  6
CONTINUOUS
 90
11
 70
0
 10
2315.8989233957
 20
1128.2779849994
 10
2316.4361388611
 20
1127.7873129359
 10
2316.9376429701
 20
1127.4217756405
 10
2317.4182474286
 20
1127.1660484435
 10
2317.8878269577
 20
1127.013719671
 10
2318.3528552042
 20
1126.9630304319
 10
2318.8178868393
 20
1127.0138044499
 10
2319.2874710131
 20
1127.1662178431
 10
2319.7681127726
 20
1127.4220483999
 10
2320.2695193804
 20
1127.7875876919
 10
2320.8064006838
 20
1128.2779849994
  0
LWPOLYLINE
  5
505
100
AcDbEntity
  8
000-SPOJ_MAT
100
AcDbPolyline
 62
7
  6
CONTINUOUS
 90
11
 70
0
 10
2320.8064006838
 20
1133.0581263532
 10
2320.26951905
 20
1133.5485239324
 10
2319.7681147447
 20
1133.9140617064
 10
2319.2874739678
 20
1134.1698922401
 10
2318.8178876658
 20
1134.3223067229
 10
2318.3528526261
 20
1134.3730809209
 10
2317.8878210264
 20
1134.3223903918
 10
2317.4182396621
 20
1134.1700595737
 10
2316.9376352312
 20
1133.9143308227
 10
2316.4361363145
 20
1133.5487963231
 10
2315.8989233957
 20
1133.0581263532
  0
LWPOLYLINE
  5
506
100
AcDbEntity
  8
000-SPOJ_MAT
100
AcDbPolyline
 62
7
  6
CONTINUOUS
 90
11
 70
0
 10
2388.1764915313
 20
1128.2779849994
 10
2388.7137069967
 20
1127.7873129359
 10
2389.2152111057
 20
1127.4217756405
 10
2389.6958155642
 20
1127.1660484435
 10
2390.1653950934
 20
1127.013719671
 10
2390.6304233399
 20
1126.9630304319
 10
2391.095454975
 20
1127.0138044499
 10
2391.5650391488
 20
1127.1662178431
 10
2392.0456809083
 20
1127.4220483999
 10
2392.547087516
 20
1127.7875876919
 10
2393.0839688194
 20
1128.2779849994
  0
LINE
  5
507
100
AcDbEntity
  8
0
100
AcDbLine
 62
6
  6
CONTINUOUS
 10
2386.9133461076
 20
1137.0680556763
 11
2387.9914461076
 21
1136.0680556763
  0
LINE
  5
508
100
AcDbEntity
  8
000-SPOJ_MAT
100
AcDbLine
 62
7
  6
CONTINUOUS
 10
2318.9964713607
 20
1134.8680556763
 11
2320.8064006838
 21
1133.0581263532
  0
LINE
  5
509
100
AcDbEntity
  8
000-SPOJ_MAT
100
AcDbLine
 62
7
  6
CONTINUOUS
 10
2388.1764915313
 20
1128.2779849994
 11
2389.9864208544
 21
1126.4680556763
  0
LINE
  5
50A
100
AcDbEntity
  8
0
100
AcDbLine
 62
6
  6
CONTINUOUS
 10
2380.4814461076
 20
1140.1680556763
 11
2380.6914461076
 21
1139.9580556763
  0
LINE
  5
50B
100
AcDbEntity
  8
000-SPOJ_MAT
100
AcDbLine
 62
7
  6
CONTINUOUS
 10
2405.9964713607
 20
1134.8680556763
 11
2407.8064006838
 21
1133.0581263532
  0
LWPOLYLINE
  5
50C
100
AcDbEntity
  8
0
100
AcDbPolyline
 62
7
  6
CONTINUOUS
 90
5
 70
0
 10
1907.9914461076
 20
1030.9091785599
 10
1906.0566261604
 20
1030.8676845876
 10
1904.1720521045
 20
1030.8324827181
 10
1902.3223396108
 20
1030.8093857473
 10
1900.4914461076
 20
1030.8013890096
  0
LINE
  5
50D
100
AcDbEntity
  8
0
100
AcDbLine
 62
9
  6
CONTINUOUS
 10
1892.9914461076
 20
1024.3235398219
 11
1907.9914461076
 21
1024.3235398219
  0
LINE
  5
50E
100
AcDbEntity
  8
0
100
AcDbLine
 62
7
  6
CONTINUOUS
 10
1851.4914461076
 20
1028.9680556763
 11
1887.1512200171
 21
1028.9680556763
  0
LINE
  5
50F
100
AcDbEntity
  8
0
100
AcDbLine
 62
7
  6
CONTINUOUS
 10
1913.831672198
 20
1028.9680556763
 11
1949.4914461076
 21
1028.9680556763
  0
LINE
  5
510
100
AcDbEntity
  8
0
100
AcDbLine
 62
9
  6
CONTINUOUS
 10
1913.9914461076
 20
1030.9680556763
 11
1907.9914461076
 21
1030.9680556763
  0
LINE
  5
511
100
AcDbEntity
  8
0
100
AcDbLine
 62
9
  6
CONTINUOUS
 10
1886.9914461076
 20
1030.9680556763
 11
1892.9914461076
 21
1030.9680556763
  0
LINE
  5
512
100
AcDbEntity
  8
0
100
AcDbLine
 62
7
  6
CONTINUOUS
 10
1949.4861661494
 20
1031.9680556763
 11
1913.9914461076
 21
1031.9680556763
  0
LINE
  5
513
100
AcDbEntity
  8
0
100
AcDbLine
 62
7
  6
CONTINUOUS
 10
1907.9914461076
 20
1031.9680556763
 11
1892.9914461076
 21
1031.9680556763
  0
LINE
  5
514
100
AcDbEntity
  8
0
100
AcDbLine
 62
7
  6
CONTINUOUS
 10
1886.9914461076
 20
1031.9680556763
 11
1851.4914461076
 21
1031.9680556763
  0
LINE
  5
515
100
AcDbEntity
  8
0
100
AcDbLine
 62
9
  6
CONTINUOUS
 10
1925.7150332002
 20
1038.1934805357
 11
1913.9914461076
 21
1038.1934805357
  0
LINE
  5
516
100
AcDbEntity
  8
0
100
AcDbLine
 62
9
  6
CONTINUOUS
 10
1875.2678590149
 20
1038.1934805357
 11
1886.9914461076
 21
1038.1934805357
  0
LINE
  5
517
100
AcDbEntity
  8
0
100
AcDbLine
 62
9
  6
CONTINUOUS
 10
1892.9914461076
 20
1038.1934805357
 11
1907.9914461076
 21
1038.1934805357
  0
LINE
  5
518
100
AcDbEntity
  8
0
100
AcDbLine
 62
7
  6
CONTINUOUS
 10
1925.0969992114
 20
1038.2913675031
 11
1913.9914461076
 21
1038.2913675031
  0
LINE
  5
519
100
AcDbEntity
  8
0
100
AcDbLine
 62
7
  6
CONTINUOUS
 10
1907.9914461076
 20
1038.2913675031
 11
1892.9914461076
 21
1038.2913675031
  0
LINE
  5
51A
100
AcDbEntity
  8
0
100
AcDbLine
 62
7
  6
CONTINUOUS
 10
1886.9914461076
 20
1038.2913675031
 11
1875.8858930037
 21
1038.2913675031
  0
LINE
  5
51B
100
AcDbEntity
  8
AXIS
100
AcDbLine
 62
7
  6
CONTINUOUS
 10
1905.9914461076
 20
1039.4680556763
 11
1915.9914461076
 21
1039.4680556763
  0
LINE
  5
51C
100
AcDbEntity
  8
ROUND
100
AcDbLine
 62
7
  6
CONTINUOUS
 10
1905.4914461076
 20
1041.3892544705
 11
1895.4914461076
 21
1041.3892544705
  0
LINE
  5
51D
100
AcDbEntity
  8
ROUND
100
AcDbLine
 62
7
  6
CONTINUOUS
 10
1905.9914461076
 20
1042.1900341921
 11
1893.9914461076
 21
1042.1900341921
  0
LINE
  5
51E
100
AcDbEntity
  8
ROUND
100
AcDbLine
 62
9
  6
CONTINUOUS
 10
1893.9914461076
 20
1046.3900341921
 11
1905.9914461076
 21
1046.3900341921
  0
LINE
  5
51F
100
AcDbEntity
  8
ROUND
100
AcDbLine
 62
7
  6
CONTINUOUS
 10
1905.1914461076
 20
1048.1900341921
 11
1895.7914461076
 21
1048.1900341921
  0
LWPOLYLINE
  5
520
100
AcDbEntity
  8
0
100
AcDbPolyline
 62
7
  6
CONTINUOUS
 90
4
 70
0
 10
1900.4914461076
 20
1030.8013890096
 10
1898.660539989
 20
1030.8093858561
 10
1896.8108503107
 20
1030.8324825548
 10
1894.9263081064
 20
1030.8676837145
  0
LINE
  5
521
100
AcDbEntity
  8
0
100
AcDbLine
 62
7
  6
CONTINUOUS
 10
1894.9263081064
 20
1030.8676837145
 11
1892.9914461076
 21
1030.9091785599
  0
LWPOLYLINE
  5
522
100
AcDbEntity
  8
000-SPOJ_MAT
100
AcDbPolyline
 62
7
  6
CONTINUOUS
 90
11
 70
0
 10
2393.0839688194
 20
1133.0581263532
 10
2392.5470871857
 20
1133.5485239324
 10
2392.0456828803
 20
1133.9140617064
 10
2391.5650421035
 20
1134.1698922401
 10
2391.0954558014
 20
1134.3223067229
 10
2390.6304207618
 20
1134.3730809209
 10
2390.1653891621
 20
1134.3223903918
 10
2389.6958077978
 20
1134.1700595737
 10
2389.2152033669
 20
1133.9143308227
 10
2388.7137044502
 20
1133.5487963231
 10
2388.1764915313
 20
1133.0581263532
  0
LWPOLYLINE
  5
523
100
AcDbEntity
  8
000-SPOJ_MAT
100
AcDbPolyline
 62
7
  6
CONTINUOUS
 90
11
 70
0
 10
2402.8989233957
 20
1128.2779849994
 10
2403.4361388611
 20
1127.7873129359
 10
2403.9376429701
 20
1127.4217756405
 10
2404.4182474286
 20
1127.1660484435
 10
2404.8878269577
 20
1127.013719671
 10
2405.3528552042
 20
1126.9630304319
 10
2405.8178868394
 20
1127.0138044499
 10
2406.2874710131
 20
1127.1662178431
 10
2406.7681127726
 20
1127.4220483999
 10
2407.2695193804
 20
1127.7875876919
 10
2407.8064006838
 20
1128.2779849994
  0
LWPOLYLINE
  5
524
100
AcDbEntity
  8
000-SPOJ_MAT
100
AcDbPolyline
 62
7
  6
CONTINUOUS
 90
11
 70
0
 10
2407.8064006838
 20
1133.0581263532
 10
2407.26951905
 20
1133.5485239324
 10
2406.7681147447
 20
1133.9140617064
 10
2406.2874739678
 20
1134.1698922401
 10
2405.8178876658
 20
1134.3223067229
 10
2405.3528526261
 20
1134.3730809209
 10
2404.8878210264
 20
1134.3223903918
 10
2404.4182396621
 20
1134.1700595737
 10
2403.9376352312
 20
1133.9143308227
 10
2403.4361363145
 20
1133.5487963231
 10
2402.8989233957
 20
1133.0581263532
  0
LWPOLYLINE
  5
525
100
AcDbEntity
  8
0
100
AcDbPolyline
 62
7
  6
CONTINUOUS
 90
6
 70
0
 10
2388.3555048344
 20
1168.4757923725
 10
2388.5279049551
 20
1168.3094748447
 10
2388.7418785206
 20
1168.1648911464
 10
2388.9785678249
 20
1168.0583431939
 10
2389.230770473
 20
1167.9930644438
 10
2389.4914461076
 20
1167.9710179169
  0
LINE
  5
526
100
AcDbEntity
  8
0
100
AcDbLine
 62
7
  6
CONTINUOUS
 10
2470.4914461076
 20
1164.4680556763
 11
2455.4914461076
 21
1179.4680556763
  0
LINE
  5
527
100
AcDbEntity
  8
0
100
AcDbLine
 62
7
  6
CONTINUOUS
 10
2372.0846511604
 20
1140.6201904193
 11
2353.1514687453
 21
1136.4853260158
  0
LINE
  5
528
100
AcDbEntity
  8
0
100
AcDbLine
 62
7
  6
CONTINUOUS
 10
2371.764605885
 20
1142.0856497403
 11
2352.9914461076
 21
1137.9857330753
  0
LWPOLYLINE
  5
529
100
AcDbEntity
  8
0
100
AcDbPolyline
 62
7
  6
CONTINUOUS
 90
9
 70
0
 10
2389.4914461076
 20
1167.5827893492
 10
2389.8033136438
 20
1167.6144510445
 10
2390.1015510722
 20
1167.7080523621
 10
2390.373123986
 20
1167.8595024755
 10
2390.6061633458
 20
1168.0621822879
 10
2390.7904842132
 20
1168.307233719
 10
2390.918030882
 20
1168.5839468452
 10
2390.9832289506
 20
1168.8802279753
 10
2390.9913787092
 20
1169.0316780887
  0
LWPOLYLINE
  5
52A
100
AcDbEntity
  8
0
100
AcDbPolyline
 62
7
  6
CONTINUOUS
 90
7
 70
0
 10
2389.4914461076
 20
1167.9710179169
 10
2389.8033136438
 20
1168.0026796121
 10
2390.1015510722
 20
1168.0962809298
 10
2390.373123986
 20
1168.2477310432
 10
2390.6061633458
 20
1168.4504108556
 10
2390.7904842132
 20
1168.6954622866
 10
2390.918030882
 20
1168.9721754129
  0
LWPOLYLINE
  5
52B
100
AcDbEntity
  8
0
100
AcDbPolyline
 62
7
  6
CONTINUOUS
 90
6
 70
0
 10
2389.4914461076
 20
1170.4805668281
 10
2389.1795785713
 20
1170.4489051329
 10
2388.8813411429
 20
1170.3553038152
 10
2388.6097682291
 20
1170.2038537018
 10
2388.3767288693
 20
1170.0011738894
 10
2388.3576375986
 20
1169.9757923725
  0
LINE
  5
52C
100
AcDbEntity
  8
0
100
AcDbLine
 62
7
  6
CONTINUOUS
 10
2373.1242127599
 20
1142.2165226907
 11
2371.764605885
 21
1142.0856497403
  0
LINE
  5
52D
100
AcDbEntity
  8
0
100
AcDbLine
 62
7
  6
CONTINUOUS
 10
2373.1618239324
 20
1140.7146391733
 11
2372.0846511604
 21
1140.6201904193
  0
LWPOLYLINE
  5
52E
100
AcDbEntity
  8
000-SPOJ_MAT
100
AcDbPolyline
 62
7
  6
CONTINUOUS
 90
6
 70
0
 10
2397.9914461076
 20
1126.9630304231
 10
2398.9352944332
 20
1127.0152727994
 10
2399.8847591938
 20
1127.1713387802
 10
2400.8495364595
 20
1127.4306767397
 10
2401.8458066128
 20
1127.7960950272
 10
2402.8989233957
 20
1128.2779849994
  0
LWPOLYLINE
  5
52F
100
AcDbEntity
  8
000-SPOJ_MAT
100
AcDbPolyline
 62
7
  6
CONTINUOUS
 90
6
 70
0
 10
2310.9914461076
 20
1126.9630304231
 10
2311.9352944332
 20
1127.0152727994
 10
2312.8847591938
 20
1127.1713387802
 10
2313.8495364595
 20
1127.4306767397
 10
2314.8458066128
 20
1127.7960950272
 10
2315.8989233957
 20
1128.2779849994
  0
LWPOLYLINE
  5
530
100
AcDbEntity
  8
000-SPOJ_MAT
100
AcDbPolyline
 62
7
  6
CONTINUOUS
 90
6
 70
0
 10
2397.9914461076
 20
1134.3730809295
 10
2397.0475974839
 20
1134.3208385203
 10
2396.098132659
 20
1134.1647724936
 10
2395.1333557992
 20
1133.9054346268
 10
2394.1370852905
 20
1133.5400161966
 10
2393.0839688194
 20
1133.0581263532
  0
LWPOLYLINE
  5
531
100
AcDbEntity
  8
000-SPOJ_MAT
100
AcDbPolyline
 62
7
  6
CONTINUOUS
 90
6
 70
0
 10
2310.9914461076
 20
1134.3730809295
 10
2310.0475974839
 20
1134.3208385203
 10
2309.098132659
 20
1134.1647724936
 10
2308.1333557992
 20
1133.9054346268
 10
2307.1370852905
 20
1133.5400161966
 10
2306.0839688194
 20
1133.0581263532
  0
LWPOLYLINE
  5
532
100
AcDbEntity
  8
0
100
AcDbPolyline
 62
7
  6
CONTINUOUS
 90
14
 70
0
 10
2344.9914461076
 20
1137.9682444818
 10
2343.1943526404
 20
1137.9386678665
 10
2341.6142119574
 20
1138.0031226555
 10
2340.342323482
 20
1138.2210158812
 10
2339.2489393639
 20
1138.5790267811
 10
2338.281982582
 20
1139.084455741
 10
2337.4598642802
 20
1139.7311130066
 10
2336.7848260988
 20
1140.4965498727
 10
2336.2571221031
 20
1141.3477745785
 10
2335.8632969874
 20
1142.2623570527
 10
2335.582624681
 20
1143.2343884077
 10
2335.4031398784
 20
1144.2596494787
 10
2335.3170282521
 20
1145.3382496919
 10
2335.3077874557
 20
1145.8462689535
  0
LWPOLYLINE
  5
533
100
AcDbEntity
  8
0
100
AcDbPolyline
 62
7
  6
CONTINUOUS
 90
15
 70
0
 10
2356.4914461076
 20
1170.7259975718
 10
2353.2402874531
 20
1170.712882628
 10
2350.3884902675
 20
1170.2651798974
 10
2347.9398500531
 20
1169.465755559
 10
2345.6626342694
 20
1168.3575424318
 10
2343.4300580888
 20
1166.8973702166
 10
2341.307486654
 20
1165.1217825198
 10
2339.3563256623
 20
1163.0938205784
 10
2337.5990568214
 20
1160.8561881867
 10
2336.0457264187
 20
1158.4382140435
 10
2334.6885553767
 20
1155.8093165486
 10
2333.5418094319
 20
1152.8992387624
 10
2332.6981293187
 20
1149.7046081514
 10
2332.3172088863
 20
1146.4196350654
 10
2332.3078345884
 20
1145.8526184464
  0
LINE
  5
534
100
AcDbEntity
  8
AXIS
100
AcDbLine
 62
7
  6
CONTINUOUS
 10
1905.9914461076
 20
1059.4680556763
 11
1915.9914461076
 21
1059.4680556763
  0
LINE
  5
535
100
AcDbEntity
  8
AXIS
100
AcDbLine
 62
7
  6
CONTINUOUS
 10
1914.9914461076
 20
1060.9680556763
 11
1906.9914461076
 21
1060.9680556763
  0
LINE
  5
536
100
AcDbEntity
  8
0
100
AcDbLine
 62
9
  6
CONTINUOUS
 10
1913.9914461076
 20
1061.9680556763
 11
1907.9914461076
 21
1061.9680556763
  0
LINE
  5
537
100
AcDbEntity
  8
0
100
AcDbLine
 62
9
  6
CONTINUOUS
 10
1886.9914461076
 20
1061.9680556763
 11
1892.9914461076
 21
1061.9680556763
  0
LINE
  5
538
100
AcDbEntity
  8
0
100
AcDbLine
 62
9
  6
CONTINUOUS
 10
1896.4914461076
 20
1083.4680556763
 11
1904.4914461076
 21
1083.4680556763
  0
LINE
  5
539
100
AcDbEntity
  8
0
100
AcDbLine
 62
7
  6
CONTINUOUS
 10
2318.9913062787
 20
1088.6680556763
 11
2302.9915859364
 21
1088.6680556763
  0
LINE
  5
53A
100
AcDbEntity
  8
0
100
AcDbLine
 62
7
  6
CONTINUOUS
 10
2405.9913062787
 20
1090.6680556763
 11
2389.9915859364
 21
1090.6680556763
  0
LINE
  5
53B
100
AcDbEntity
  8
AXIS
100
AcDbLine
 62
7
  6
CONTINUOUS
 10
2324.4914461076
 20
1098.6680556763
 11
2298.4914461076
 21
1098.6680556763
  0
LINE
  5
53C
100
AcDbEntity
  8
AXIS
100
AcDbLine
 62
7
  6
CONTINUOUS
 10
2324.4914461076
 20
1099.4680556763
 11
2339.4914461076
 21
1099.4680556763
  0
LINE
  5
53D
100
AcDbEntity
  8
AXIS
100
AcDbLine
 62
7
  6
CONTINUOUS
 10
2384.4914461076
 20
1100.6680556763
 11
2410.4914461076
 21
1100.6680556763
  0
LINE
  5
53E
100
AcDbEntity
  8
AXIS
100
AcDbLine
 62
7
  6
CONTINUOUS
 10
2369.4914461076
 20
1101.4680556763
 11
2384.4914461076
 21
1101.4680556763
  0
LINE
  5
53F
100
AcDbEntity
  8
0
100
AcDbLine
 62
7
  6
CONTINUOUS
 10
2118.4914461076
 20
1109.4680556763
 11
2088.4914461076
 21
1109.4680556763
  0
LINE
  5
540
100
AcDbEntity
  8
AXIS
100
AcDbLine
 62
7
  6
CONTINUOUS
 10
2338.4914461076
 20
1110.6680556763
 11
2298.4914461076
 21
1110.6680556763
  0
LINE
  5
541
100
AcDbEntity
  8
AXIS
100
AcDbLine
 62
7
  6
CONTINUOUS
 10
2370.4914461076
 20
1110.6680556763
 11
2410.4914461076
 21
1110.6680556763
  0
LINE
  5
542
100
AcDbEntity
  8
AXIS
100
AcDbLine
 62
7
  6
CONTINUOUS
 10
2384.4914461076
 20
1112.4680556763
 11
2369.4914461076
 21
1112.4680556763
  0
LINE
  5
543
100
AcDbEntity
  8
AXIS
100
AcDbLine
 62
7
  6
CONTINUOUS
 10
2339.4914461076
 20
1112.4680556763
 11
2324.4914461076
 21
1112.4680556763
  0
LINE
  5
544
100
AcDbEntity
  8
000-SPOJ_MAT
100
AcDbLine
 62
7
  6
CONTINUOUS
 10
1906.5671820388
 20
1112.6680556763
 11
1894.4157101763
 21
1112.6680556763
  0
LINE
  5
545
100
AcDbEntity
  8
AXIS
100
AcDbLine
 62
7
  6
CONTINUOUS
 10
2298.4914461076
 20
1118.6680556763
 11
2323.4914461076
 21
1118.6680556763
  0
LINE
  5
546
100
AcDbEntity
  8
AXIS
100
AcDbLine
 62
7
  6
CONTINUOUS
 10
2385.4914461076
 20
1118.6680556763
 11
2410.4914461076
 21
1118.6680556763
  0
LINE
  5
547
100
AcDbEntity
  8
AXIS
100
AcDbLine
 62
7
  6
CONTINUOUS
 10
2323.4914461076
 20
1119.4680556763
 11
2298.4914461076
 21
1119.4680556763
  0
LINE
  5
548
100
AcDbEntity
  8
0
100
AcDbLine
 62
7
  6
CONTINUOUS
 10
1888.4914461076
 20
1119.4680556763
 11
2324.4914461076
 21
1119.4680556763
  0
LINE
  5
549
100
AcDbEntity
  8
AXIS
100
AcDbLine
 62
7
  6
CONTINUOUS
 10
2324.4914461076
 20
1119.4680556763
 11
2384.4914461076
 21
1119.4680556763
  0
LINE
  5
54A
100
AcDbEntity
  8
AXIS
100
AcDbLine
 62
7
  6
CONTINUOUS
 10
2385.4914461076
 20
1119.4680556763
 11
2410.4914461076
 21
1119.4680556763
  0
LINE
  5
54B
100
AcDbEntity
  8
0
100
AcDbLine
 62
7
  6
CONTINUOUS
 10
2384.4914461076
 20
1119.4680556763
 11
2470.4914461076
 21
1119.4680556763
  0
LINE
  5
54C
100
AcDbEntity
  8
0
100
AcDbLine
 62
6
  6
CONTINUOUS
 10
2382.4914461076
 20
1120.1980556763
 11
2373.4914461076
 21
1120.1980556763
  0
LINE
  5
54D
100
AcDbEntity
  8
0
100
AcDbLine
 62
6
  6
CONTINUOUS
 10
2382.9774461076
 20
1120.9280556763
 11
2373.0054611239
 21
1120.9280556763
  0
LINE
  5
54E
100
AcDbEntity
  8
0
100
AcDbLine
 62
6
  6
CONTINUOUS
 10
2383.6414461076
 20
1122.7530556763
 11
2372.3414461076
 21
1122.7530556763
  0
LINE
  5
54F
100
AcDbEntity
  8
0
100
AcDbLine
 62
7
  6
CONTINUOUS
 10
1888.4914461076
 20
1126.4680556763
 11
2372.3414461076
 21
1126.4680556763
  0
LINE
  5
550
100
AcDbEntity
  8
0
100
AcDbLine
 62
7
  6
CONTINUOUS
 10
2383.6414461076
 20
1126.4680556763
 11
2470.4914461076
 21
1126.4680556763
  0
LINE
  5
551
100
AcDbEntity
  8
0
100
AcDbLine
 62
9
  6
CONTINUOUS
 10
2376.4095082724
 20
1131.8930556763
 11
2383.6414461076
 21
1131.8930556763
  0
LINE
  5
552
100
AcDbEntity
  8
000-SPOJ_MAT
100
AcDbLine
 62
7
  6
CONTINUOUS
 10
1894.4157101763
 20
1133.2680556763
 11
1906.5671820388
 21
1133.2680556763
  0
LINE
  5
553
100
AcDbEntity
  8
0
100
AcDbLine
 62
6
  6
CONTINUOUS
 10
2387.9914461076
 20
1134.0680556763
 11
2367.9914604728
 21
1134.0680556763
  0
LINE
  5
554
100
AcDbEntity
  8
0
100
AcDbLine
 62
7
  6
CONTINUOUS
 10
2352.9914461076
 20
1134.3680556763
 11
2344.9914461076
 21
1134.3680556763
  0
LINE
  5
555
100
AcDbEntity
  8
000-SPOJ_MAT
100
AcDbLine
 62
7
  6
CONTINUOUS
 10
2302.9864208544
 20
1134.8680556763
 11
2318.9964713607
 21
1134.8680556763
  0
LINE
  5
556
100
AcDbEntity
  8
000-SPOJ_MAT
100
AcDbLine
 62
7
  6
CONTINUOUS
 10
2389.9864208544
 20
1134.8680556763
 11
2405.9964713607
 21
1134.8680556763
  0
LINE
  5
557
100
AcDbEntity
  8
000-SPOJ_MAT
100
AcDbLine
 62
9
  6
CONTINUOUS
 10
2405.9964713607
 20
1135.6680556763
 11
2389.9864208544
 21
1135.6680556763
  0
LINE
  5
558
100
AcDbEntity
  8
000-SPOJ_MAT
100
AcDbLine
 62
9
  6
CONTINUOUS
 10
2318.9964713607
 20
1135.6680556763
 11
2302.9864208544
 21
1135.6680556763
  0
LINE
  5
559
100
AcDbEntity
  8
0
100
AcDbLine
 62
7
  6
CONTINUOUS
 10
1896.4914461076
 20
1135.6680556763
 11
1904.4914461076
 21
1135.6680556763
  0
LINE
  5
55A
100
AcDbEntity
  8
0
100
AcDbLine
 62
6
  6
CONTINUOUS
 10
2367.9914461076
 20
1136.0680556763
 11
2387.9914461076
 21
1136.0680556763
  0
LINE
  5
55B
100
AcDbEntity
  8
000-SPOJ_MAT
100
AcDbLine
 62
7
  6
CONTINUOUS
 10
2405.1964713607
 20
1136.4680556763
 11
2390.7864208544
 21
1136.4680556763
  0
LINE
  5
55C
100
AcDbEntity
  8
000-SPOJ_MAT
100
AcDbLine
 62
7
  6
CONTINUOUS
 10
2318.1964713607
 20
1136.4680556763
 11
2303.7864208544
 21
1136.4680556763
  0
LINE
  5
55D
100
AcDbEntity
  8
0
100
AcDbLine
 62
7
  6
CONTINUOUS
 10
1897.2916961692
 20
1136.4680556763
 11
1903.6911960459
 21
1136.4680556763
  0
LINE
  5
55E
100
AcDbEntity
  8
0
100
AcDbLine
 62
2
  6
CONTINUOUS
 10
2386.9133461076
 20
1137.0680556763
 11
2378.7007442566
 21
1137.0680556763
  0
LINE
  5
55F
100
AcDbEntity
  8
0
100
AcDbLine
 62
6
  6
CONTINUOUS
 10
2369.0695461076
 20
1137.0680556763
 11
2376.7449361354
 21
1137.0680556763
  0
LINE
  5
560
100
AcDbEntity
  8
0
100
AcDbLine
 62
2
  6
CONTINUOUS
 10
2376.7449361354
 20
1137.0680556763
 11
2377.164493453
 21
1137.0680556763
  0
LINE
  5
561
100
AcDbEntity
  8
0
100
AcDbLine
 62
7
  6
CONTINUOUS
 10
2352.9914461076
 20
1138.5680556763
 11
2344.9914461076
 21
1138.5680556763
  0
LINE
  5
562
100
AcDbEntity
  8
0
100
AcDbLine
 62
7
  6
CONTINUOUS
 10
2315.9914461076
 20
1138.6680556763
 11
2305.9914461076
 21
1138.6680556763
  0
LINE
  5
563
100
AcDbEntity
  8
0
100
AcDbLine
 62
6
  6
CONTINUOUS
 10
2375.2914461076
 20
1139.9580556763
 11
2375.3786189719
 21
1139.9580556763
  0
LINE
  5
564
100
AcDbEntity
  8
0
100
AcDbLine
 62
6
  6
CONTINUOUS
 10
2377.5219707927
 20
1139.9580556763
 11
2380.6914461076
 21
1139.9580556763
  0
LINE
  5
565
100
AcDbEntity
  8
0
100
AcDbLine
 62
6
  6
CONTINUOUS
 10
2377.3398845714
 20
1140.1680556763
 11
2380.4814326799
 21
1140.1680556763
  0
LINE
  5
566
100
AcDbEntity
  8
0
100
AcDbLine
 62
7
  6
CONTINUOUS
 10
2402.9914461076
 20
1140.6680556763
 11
2392.9914461076
 21
1140.6680556763
  0
LINE
  5
567
100
AcDbEntity
  8
0
100
AcDbLine
 62
7
  6
CONTINUOUS
 10
2395.7414461076
 20
1160.7705769299
 11
2383.2414461076
 21
1160.7705769299
  0
LINE
  5
568
100
AcDbEntity
  8
0
100
AcDbLine
 62
7
  6
CONTINUOUS
 10
2364.4914461076
 20
1167.1257923725
 11
2356.4914461076
 21
1167.1257923725
  0
LINE
  5
569
100
AcDbEntity
  8
0
100
AcDbLine
 62
7
  6
CONTINUOUS
 10
2364.4914461076
 20
1168.4757923725
 11
2389.4914461076
 21
1168.4757923725
  0
LINE
  5
56A
100
AcDbEntity
  8
0
100
AcDbLine
 62
7
  6
CONTINUOUS
 10
2364.4914461076
 20
1169.9757923725
 11
2389.4914461076
 21
1169.9757923725
  0
LINE
  5
56B
100
AcDbEntity
  8
0
100
AcDbLine
 62
7
  6
CONTINUOUS
 10
2364.4914461076
 20
1171.3257923725
 11
2356.4914461076
 21
1171.3257923725
  0
LINE
  5
56C
100
AcDbEntity
  8
0
100
AcDbLine
 62
7
  6
CONTINUOUS
 10
1903.4914461076
 20
1179.4680556763
 11
2455.4914461076
 21
1179.4680556763
  0
LINE
  5
56D
100
AcDbEntity
  8
0
100
AcDbLine
 62
7
  6
CONTINUOUS
 10
2352.9914461076
 20
1134.9503782772
 11
2371.764605885
 21
1130.8504616123
  0
LINE
  5
56E
100
AcDbEntity
  8
0
100
AcDbLine
 62
7
  6
CONTINUOUS
 10
2353.1514687453
 20
1136.4507853368
 11
2372.0846511604
 21
1132.3159209333
  0
LWPOLYLINE
  5
56F
100
AcDbEntity
  8
000-SPOJ_MAT
100
AcDbPolyline
 62
7
  6
CONTINUOUS
 90
6
 70
0
 10
2306.0839688194
 20
1128.2779849994
 10
2307.1462936498
 20
1127.7922960654
 10
2308.1455155664
 20
1127.4268086804
 10
2309.1087658993
 20
1127.1690332239
 10
2310.0536968932
 20
1127.0146018336
 10
2310.9914461076
 20
1126.9630304231
  0
LWPOLYLINE
  5
570
100
AcDbEntity
  8
000-SPOJ_MAT
100
AcDbPolyline
 62
7
  6
CONTINUOUS
 90
6
 70
0
 10
2315.8989233957
 20
1133.0581263532
 10
2314.8365975714
 20
1133.5438156969
 10
2313.8373757032
 20
1133.9093029724
 10
2312.8741250887
 20
1134.1670783941
 10
2311.9291945179
 20
1134.3215096071
 10
2310.9914461076
 20
1134.3730809295
  0
LWPOLYLINE
  5
571
100
AcDbEntity
  8
000-SPOJ_MAT
100
AcDbPolyline
 62
7
  6
CONTINUOUS
 90
6
 70
0
 10
2393.0839688194
 20
1128.2779849994
 10
2394.1462936498
 20
1127.7922960654
 10
2395.1455155664
 20
1127.4268086804
 10
2396.1087658993
 20
1127.1690332239
 10
2397.0536968932
 20
1127.0146018336
 10
2397.9914461076
 20
1126.9630304231
  0
LWPOLYLINE
  5
572
100
AcDbEntity
  8
000-SPOJ_MAT
100
AcDbPolyline
 62
7
  6
CONTINUOUS
 90
6
 70
0
 10
2402.8989233957
 20
1133.0581263532
 10
2401.8365975714
 20
1133.5438156969
 10
2400.8373757032
 20
1133.9093029724
 10
2399.8741250887
 20
1134.1670783941
 10
2398.9291945179
 20
1134.3215096071
 10
2397.9914461076
 20
1134.3730809295
  0
LWPOLYLINE
  5
573
100
AcDbEntity
  8
0
100
AcDbPolyline
 62
6
  6
CONTINUOUS
 90
3
 70
0
 10
2377.2936924322
 20
1136.6675901613
 10
2376.993716813
 20
1136.8333724991
 10
2376.7449361354
 20
1137.0680556763
  0
LINE
  5
574
100
AcDbEntity
  8
0
100
AcDbLine
 62
7
  6
CONTINUOUS
 10
2389.4914461076
 20
1151.5246800033
 11
2388.2414461076
 21
1152.2463678398
  0
LINE
  5
575
100
AcDbEntity
  8
0
100
AcDbLine
 62
7
  6
CONTINUOUS
 10
2389.4914461076
 20
1154.4114313493
 11
2390.7414461076
 21
1153.6897435128
  0
LWPOLYLINE
  5
576
100
AcDbEntity
  8
000-SPOJ_MAT
100
AcDbPolyline
 62
7
  6
CONTINUOUS
 90
4
 70
0
 10
2998.3122941621
 20
1127.3457853211
 10
2998.5604611709
 20
1127.4220483999
 10
2999.4289228908
 20
1127.7875876919
 10
3000.358828586
 20
1128.2779849994
  0
LINE
  5
577
100
AcDbEntity
  8
0
100
AcDbLine
 62
7
  6
CONTINUOUS
 10
2655.358828586
 20
1119.4680556763
 11
2652.358828586
 21
1116.4680556763
  0
LINE
  5
578
100
AcDbEntity
  8
000-SPOJ_MAT
100
AcDbLine
 62
7
  6
CONTINUOUS
 10
2962.8643820854
 20
1128.0172325017
 11
2963.358828586
 21
1128.2779849994
  0
LINE
  5
579
100
AcDbEntity
  8
0
100
AcDbLine
 62
7
  6
CONTINUOUS
 10
2897.1352414933
 20
1038.1934805357
 11
2877.9753538917
 21
1031.9680556763
  0
LINE
  5
57A
100
AcDbEntity
  8
0
100
AcDbLine
 62
6
  6
CONTINUOUS
 10
3019.9888518779
 20
1133.7283179425
 11
3020.108828586
 21
1133.8080512539
  0
LINE
  5
57B
100
AcDbEntity
  8
000-SPOJ_MAT
100
AcDbLine
 62
7
  6
CONTINUOUS
 10
2946.358828586
 20
1134.3730809295
 11
2946.8538033328
 21
1134.8680556763
  0
LINE
  5
57C
100
AcDbEntity
  8
0
100
AcDbLine
 62
7
  6
CONTINUOUS
 10
2952.158828589
 20
1136.4680556794
 11
2951.3588285898
 21
1135.6680556801
  0
LINE
  5
57D
100
AcDbEntity
  8
000-SPOJ_MAT
100
AcDbLine
 62
7
  6
CONTINUOUS
 10
2947.8532750865
 20
1131.8382381081
 11
2949.2830926547
 21
1133.2680556763
  0
LINE
  5
57E
100
AcDbEntity
  8
000-SPOJ_MAT
100
AcDbLine
 62
7
  6
CONTINUOUS
 10
2949.2830926547
 20
1119.4680556763
 11
2947.8532750865
 21
1118.0382381081
  0
LINE
  5
57F
100
AcDbEntity
  8
000-SPOJ_MAT
100
AcDbLine
 62
7
  6
CONTINUOUS
 10
2961.4345645172
 20
1126.4680556763
 11
2962.8643820854
 21
1127.8978732445
  0
LINE
  5
580
100
AcDbEntity
  8
000-SPOJ_MAT
100
AcDbLine
 62
7
  6
CONTINUOUS
 10
2963.358828586
 20
1126.9630304231
 11
2962.8638538391
 21
1126.4680556763
  0
LINE
  5
581
100
AcDbEntity
  8
000-SPOJ_MAT
100
AcDbLine
 62
7
  6
CONTINUOUS
 10
2962.8643820854
 20
1114.0978732445
 11
2961.4345645172
 21
1112.6680556763
  0
LINE
  5
582
100
AcDbEntity
  8
000-SPOJ_MAT
100
AcDbLine
 62
7
  6
CONTINUOUS
 10
2983.358828586
 20
1134.3730809295
 11
2983.8538033328
 21
1134.8680556763
  0
LINE
  5
583
100
AcDbEntity
  8
0
100
AcDbLine
 62
7
  6
CONTINUOUS
 10
2988.158828588
 20
1136.4680556784
 11
2987.3588285886
 21
1135.6680556789
  0
LINE
  5
584
100
AcDbEntity
  8
000-SPOJ_MAT
100
AcDbLine
 62
7
  6
CONTINUOUS
 10
2983.8532750865
 20
1131.8382381081
 11
2985.2830926547
 21
1133.2680556763
  0
LINE
  5
585
100
AcDbEntity
  8
000-SPOJ_MAT
100
AcDbLine
 62
7
  6
CONTINUOUS
 10
2985.2830926547
 20
1119.4680556763
 11
2983.8532750865
 21
1118.0382381081
  0
LINE
  5
586
100
AcDbEntity
  8
0
100
AcDbLine
 62
6
  6
CONTINUOUS
 10
3010.658828586
 20
1139.9580556763
 11
3010.868828586
 21
1140.1680556763
  0
LINE
  5
587
100
AcDbEntity
  8
000-SPOJ_MAT
100
AcDbLine
 62
7
  6
CONTINUOUS
 10
2997.4345645172
 20
1126.4680556763
 11
2998.8643820854
 21
1127.8978732445
  0
LINE
  5
588
100
AcDbEntity
  8
000-SPOJ_MAT
100
AcDbLine
 62
7
  6
CONTINUOUS
 10
3000.358828586
 20
1126.9630304231
 11
2999.8638538391
 21
1126.4680556763
  0
LWPOLYLINE
  5
589
100
AcDbEntity
  8
0
100
AcDbPolyline
 62
6
  6
CONTINUOUS
 90
3
 70
0
 10
3019.858828586
 20
1133.6179578423
 10
3019.8894932651
 20
1133.646621021
 10
3019.9897355299
 20
1133.7289051939
  0
LINE
  5
58A
100
AcDbEntity
  8
0
100
AcDbLine
 62
6
  6
CONTINUOUS
 10
3003.358828586
 20
1136.0680556763
 11
3004.436928586
 21
1137.0680556763
  0
LINE
  5
58B
100
AcDbEntity
  8
0
100
AcDbLine
 62
6
  6
CONTINUOUS
 10
3019.8922648959
 20
1133.6486565627
 11
3019.858828586
 21
1133.6179578423
  0
LWPOLYLINE
  5
58C
100
AcDbEntity
  8
0
100
AcDbPolyline
 62
7
  6
CONTINUOUS
 90
36
 70
0
 10
2980.6640691586
 20
1170.2198972806
 10
2980.6349027223
 20
1170.1840564374
 10
2980.584596003
 20
1170.1164304337
 10
2980.5384305233
 20
1170.0465100602
 10
2980.4964987723
 20
1169.9745929251
 10
2980.4588690344
 20
1169.9009799142
 10
2980.42558543
 20
1169.8259730978
 10
2980.3966681513
 20
1169.7498736781
 10
2980.3721138823
 20
1169.6729799948
 10
2980.3518963959
 20
1169.5955856076
 10
2980.3359673166
 20
1169.5179774719
 10
2980.3242570346
 20
1169.4404342219
 10
2980.3166757588
 20
1169.3632245759
 10
2980.313114693
 20
1169.2866058739
 10
2980.313447319
 20
1169.2108227573
 10
2980.3175307703
 20
1169.1361059998
 10
2980.3252072786
 20
1169.0626714947
 10
2980.3363056769
 20
1168.990719398
 10
2980.3506429422
 20
1168.9204334348
 10
2980.3680257594
 20
1168.8519803681
 10
2980.3882520917
 20
1168.7855096266
 10
2980.411112741
 20
1168.7211530908
 10
2980.4363928824
 20
1168.6590250298
 10
2980.4638734019
 20
1168.599222511
 10
2980.4933169147
 20
1168.5418539859
 10
2980.5244501113
 20
1168.4870581606
 10
2980.5569840519
 20
1168.4349541337
 10
2980.590619517
 20
1168.3856357393
 10
2980.6250498817
 20
1168.3391719034
 10
2980.6599345785
 20
1168.2956426229
 10
2980.6948328883
 20
1168.2552048099
 10
2980.7292683031
 20
1168.2179959099
 10
2980.7626716173
 20
1168.1841926566
 10
2980.794197599
 20
1168.154168958
 10
2980.8220433754
 20
1168.129048834
 10
2980.8416010788
 20
1168.1121406315
  0
LINE
  5
58D
100
AcDbEntity
  8
000-SPOJ_MAT
100
AcDbLine
 62
7
  6
CONTINUOUS
 10
2998.8643820854
 20
1114.0978732445
 11
2997.4345645172
 21
1112.6680556763
  0
LWPOLYLINE
  5
58E
100
AcDbEntity
  8
0
100
AcDbPolyline
 62
7
  6
CONTINUOUS
 90
7
 70
0
 10
3022.0427014512
 20
1135.4739487331
 10
3022.1792357892
 20
1135.6651606458
 10
3022.3450180389
 20
1136.0584162933
 10
3022.3933351895
 20
1136.482729575
 10
3022.3202677818
 20
1136.9030159861
 10
3022.1325407676
 20
1137.2847181243
 10
3021.8467372779
 20
1137.5971232956
  0
LINE
  5
58F
100
AcDbEntity
  8
0
100
AcDbLine
 62
7
  6
CONTINUOUS
 10
3370.358828586
 20
1119.4680556763
 11
3367.358828586
 21
1116.4680556763
  0
LINE
  5
590
100
AcDbEntity
  8
AXIS
100
AcDbLine
 62
7
  6
CONTINUOUS
 10
2647.358828586
 20
999.4685800346
 11
2647.358828586
 21
1119.4680556763
  0
LINE
  5
591
100
AcDbEntity
  8
AXIS
100
AcDbLine
 62
7
  6
CONTINUOUS
 10
2652.358828586
 20
999.4685800346
 11
2652.358828586
 21
1029.4680556763
  0
LINE
  5
592
100
AcDbEntity
  8
0
100
AcDbLine
 62
7
  6
CONTINUOUS
 10
2652.358828586
 20
1029.4680556763
 11
2652.358828586
 21
1116.4680556763
  0
LINE
  5
593
100
AcDbEntity
  8
0
100
AcDbLine
 62
2
  6
CONTINUOUS
 10
2655.358828586
 20
1112.4680556763
 11
2655.358828586
 21
1059.4680556763
  0
LINE
  5
594
100
AcDbEntity
  8
AXIS
100
AcDbLine
 62
7
  6
CONTINUOUS
 10
2662.358828586
 20
1099.4680556763
 11
2662.358828586
 21
1000.4685800346
  0
LINE
  5
595
100
AcDbEntity
  8
ROUND
100
AcDbLine
 62
7
  6
CONTINUOUS
 10
2977.0291994545
 20
1161.6038884139
 11
2978.8705205707
 21
1168.4757923725
  0
LINE
  5
596
100
AcDbEntity
  8
0
100
AcDbLine
 62
7
  6
CONTINUOUS
 10
2979.2724443593
 20
1169.9757923725
 11
2980.7411142625
 21
1175.4569430706
  0
LINE
  5
597
100
AcDbEntity
  8
0
100
AcDbLine
 62
7
  6
CONTINUOUS
 10
2978.358828586
 20
1160.7705769299
 11
2980.2617723908
 21
1167.8724598936
  0
LINE
  5
598
100
AcDbEntity
  8
0
100
AcDbLine
 62
7
  6
CONTINUOUS
 10
2981.1509851819
 20
1171.1910472086
 11
2982.1900030019
 21
1175.068714503
  0
LINE
  5
599
100
AcDbEntity
  8
0
100
AcDbLine
 62
6
  6
CONTINUOUS
 10
3017.858828586
 20
1120.1980556763
 11
3017.593128586
 21
1119.4680556763
  0
LINE
  5
59A
100
AcDbEntity
  8
0
100
AcDbLine
 62
6
  6
CONTINUOUS
 10
3019.008828586
 20
1122.7530556763
 11
3018.344828586
 21
1120.9280556763
  0
LINE
  5
59B
100
AcDbEntity
  8
AXIS
100
AcDbLine
 62
7
  6
CONTINUOUS
 10
2667.358828586
 20
1099.4680556763
 11
2667.358828586
 21
1000.4685800346
  0
LINE
  5
59C
100
AcDbEntity
  8
0
100
AcDbLine
 62
2
  6
CONTINUOUS
 10
2670.358828586
 20
1059.4680556763
 11
2670.358828586
 21
1099.4680556763
  0
LINE
  5
59D
100
AcDbEntity
  8
0
100
AcDbLine
 62
7
  6
CONTINUOUS
 10
2980.3589915825
 20
1153.6897435128
 11
2980.3811796025
 21
1153.7797297554
  0
LINE
  5
59E
100
AcDbEntity
  8
0
100
AcDbLine
 62
7
  6
CONTINUOUS
 10
2980.3589915825
 20
1151.5246800033
 11
2980.3810798564
 21
1151.6141927693
  0
LINE
  5
59F
100
AcDbEntity
  8
AXIS
100
AcDbLine
 62
7
  6
CONTINUOUS
 10
2823.358828586
 20
1119.4680556763
 11
2823.358828586
 21
1119.9680556763
  0
LINE
  5
5A0
100
AcDbEntity
  8
AXIS
100
AcDbLine
 62
9
  6
CONTINUOUS
 10
2826.358828586
 20
1119.4680556763
 11
2826.358828586
 21
1119.9680556763
  0
LWPOLYLINE
  5
5A1
100
AcDbEntity
  8
0
100
AcDbPolyline
 62
9
  6
CONTINUOUS
 90
6
 70
0
 10
2987.4655336643
 20
1169.2257923725
 10
2987.4296713221
 20
1168.9940296267
 10
2987.3255947515
 20
1168.7849534333
 10
2987.1634916922
 20
1168.6190296267
 10
2986.9592299212
 20
1168.5124999853
 10
2986.7328040038
 20
1168.4757923725
  0
LWPOLYLINE
  5
5A2
100
AcDbEntity
  8
0
100
AcDbPolyline
 62
7
  6
CONTINUOUS
 90
7
 70
0
 10
2980.3811834936
 20
1153.7797455366
 10
2980.3970348239
 20
1153.8700455381
 10
2980.4065254711
 20
1153.9604148797
 10
2980.4096759378
 20
1154.0508934385
 10
2980.4064790818
 20
1154.1414212219
 10
2980.3969306378
 20
1154.2318708784
 10
2980.3810798564
 20
1154.3219185833
  0
LWPOLYLINE
  5
5A3
100
AcDbEntity
  8
0
100
AcDbPolyline
 62
7
  6
CONTINUOUS
 90
7
 70
0
 10
2980.3810820723
 20
1151.6142017495
 10
2980.3969346326
 20
1151.704268851
 10
2980.4064827888
 20
1151.7947427934
 10
2980.4096759542
 20
1151.8852976756
 10
2980.4065190922
 20
1151.9757876864
 10
2980.3970251846
 20
1152.0661345515
 10
2980.3811796025
 20
1152.1563815971
  0
LWPOLYLINE
  5
5A4
100
AcDbEntity
  8
0
100
AcDbPolyline
 62
9
  6
CONTINUOUS
 90
5
 70
0
 10
3021.608828586
 20
1131.5831912728
 10
3021.5517382353
 20
1131.3027877713
 10
3021.3891586718
 20
1131.0650731611
 10
3021.1458411602
 20
1130.9062373366
 10
3020.858828586
 20
1130.8504616123
  0
LINE
  5
5A5
100
AcDbEntity
  8
AXIS
100
AcDbLine
 62
7
  6
CONTINUOUS
 10
2872.358828586
 20
831.9680556763
 11
2872.358828586
 21
929.4680556763
  0
LINE
  5
5A6
100
AcDbEntity
  8
0
100
AcDbLine
 62
7
  6
CONTINUOUS
 10
2873.358828586
 20
930.4680556763
 11
2873.358828586
 21
1028.9680556763
  0
LINE
  5
5A7
100
AcDbEntity
  8
AXIS
100
AcDbLine
 62
9
  6
CONTINUOUS
 10
2890.358828586
 20
1119.4680556763
 11
2890.358828586
 21
1119.9680556763
  0
LINE
  5
5A8
100
AcDbEntity
  8
AXIS
100
AcDbLine
 62
7
  6
CONTINUOUS
 10
2893.358828586
 20
1119.4680556763
 11
2893.358828586
 21
1119.9680556763
  0
LINE
  5
5A9
100
AcDbEntity
  8
ROUND
100
AcDbLine
 62
7
  6
CONTINUOUS
 10
2906.358828586
 20
1042.1900341921
 11
2906.358828586
 21
1046.3900341921
  0
LINE
  5
5AA
100
AcDbEntity
  8
ROUND
100
AcDbLine
 62
9
  6
CONTINUOUS
 10
2907.858828586
 20
1038.2913675031
 11
2907.858828586
 21
1041.3892544705
  0
LINE
  5
5AB
100
AcDbEntity
  8
ROUND
100
AcDbLine
 62
9
  6
CONTINUOUS
 10
2908.158828586
 20
1042.1900341921
 11
2908.158828586
 21
1048.1900341921
  0
LINE
  5
5AC
100
AcDbEntity
  8
ROUND
100
AcDbLine
 62
9
  6
CONTINUOUS
 10
2908.558828586
 20
1048.1900341921
 11
2908.558828586
 21
1042.1900341921
  0
LINE
  5
5AD
100
AcDbEntity
  8
ROUND
100
AcDbLine
 62
9
  6
CONTINUOUS
 10
2908.858828586
 20
1041.3892544705
 11
2908.858828586
 21
1038.2913675031
  0
LINE
  5
5AE
100
AcDbEntity
  8
ROUND
100
AcDbLine
 62
7
  6
CONTINUOUS
 10
2910.358828586
 20
1046.3900341921
 11
2910.358828586
 21
1042.1900341921
  0
LINE
  5
5AF
100
AcDbEntity
  8
0
100
AcDbLine
 62
9
  6
CONTINUOUS
 10
2922.358828586
 20
828.9681154557
 11
2922.358828586
 21
831.9679958969
  0
LINE
  5
5B0
100
AcDbEntity
  8
AXIS
100
AcDbLine
 62
7
  6
CONTINUOUS
 10
2923.358828586
 20
1098.6680556763
 11
2923.358828586
 21
1118.6680556763
  0
LINE
  5
5B1
100
AcDbEntity
  8
0
100
AcDbLine
 62
7
  6
CONTINUOUS
 10
2943.358828586
 20
1109.4680556763
 11
2943.358828586
 21
1126.4680556763
  0
LINE
  5
5B2
100
AcDbEntity
  8
000-SPOJ_MAT
100
AcDbLine
 62
7
  6
CONTINUOUS
 10
2946.358828586
 20
1126.9630304231
 11
2946.358828586
 21
1134.3730809295
  0
LINE
  5
5B3
100
AcDbEntity
  8
000-SPOJ_MAT
100
AcDbLine
 62
7
  6
CONTINUOUS
 10
2946.8538033328
 20
1134.8680556763
 11
2946.8538033328
 21
1135.6680556763
  0
LINE
  5
5B4
100
AcDbEntity
  8
0
100
AcDbLine
 62
7
  6
CONTINUOUS
 10
2946.858828586
 20
1098.6680556763
 11
2946.858828586
 21
1088.6680556763
  0
LINE
  5
5B5
100
AcDbEntity
  8
000-SPOJ_MAT
100
AcDbLine
 62
7
  6
CONTINUOUS
 10
2947.8532750865
 20
1131.8382381081
 11
2947.8532750865
 21
1127.8978732445
  0
LINE
  5
5B6
100
AcDbEntity
  8
000-SPOJ_MAT
100
AcDbLine
 62
7
  6
CONTINUOUS
 10
2947.8532750865
 20
1114.0978732445
 11
2947.8532750865
 21
1118.0382381081
  0
LINE
  5
5B7
100
AcDbEntity
  8
0
100
AcDbLine
 62
7
  6
CONTINUOUS
 10
2949.858828586
 20
1140.6680556763
 11
2949.858828586
 21
1136.4680556763
  0
LINE
  5
5B8
100
AcDbEntity
  8
0
100
AcDbLine
 62
7
  6
CONTINUOUS
 10
2951.358828586
 20
1135.6680556763
 11
2951.358828586
 21
1133.2680556763
  0
LINE
  5
5B9
100
AcDbEntity
  8
0
100
AcDbLine
 62
7
  6
CONTINUOUS
 10
2951.358828586
 20
1112.6680556763
 11
2951.358828586
 21
1083.4680556763
  0
LINE
  5
5BA
100
AcDbEntity
  8
000-SPOJ_MAT
100
AcDbLine
 62
7
  6
CONTINUOUS
 10
2951.6060518362
 20
1131.8382381081
 11
2951.6060518362
 21
1127.8978732445
  0
LINE
  5
5BB
100
AcDbEntity
  8
000-SPOJ_MAT
100
AcDbLine
 62
7
  6
CONTINUOUS
 10
2951.6060518362
 20
1114.0978732445
 11
2951.6060518362
 21
1118.0382381081
  0
LINE
  5
5BC
100
AcDbEntity
  8
000-SPOJ_MAT
100
AcDbLine
 62
7
  6
CONTINUOUS
 10
2959.1116053357
 20
1131.8382381081
 11
2959.1116053357
 21
1127.8978732445
  0
LINE
  5
5BD
100
AcDbEntity
  8
000-SPOJ_MAT
100
AcDbLine
 62
7
  6
CONTINUOUS
 10
2959.1116053357
 20
1114.0978732445
 11
2959.1116053357
 21
1118.0382381081
  0
LINE
  5
5BE
100
AcDbEntity
  8
0
100
AcDbLine
 62
7
  6
CONTINUOUS
 10
2959.358828586
 20
1135.6680556763
 11
2959.358828586
 21
1133.2680556763
  0
LINE
  5
5BF
100
AcDbEntity
  8
0
100
AcDbLine
 62
7
  6
CONTINUOUS
 10
2959.358828586
 20
1112.6680556763
 11
2959.358828586
 21
1083.4680556763
  0
LINE
  5
5C0
100
AcDbEntity
  8
0
100
AcDbLine
 62
7
  6
CONTINUOUS
 10
2959.858828586
 20
1140.6680556763
 11
2959.858828586
 21
1136.4680556763
  0
LINE
  5
5C1
100
AcDbEntity
  8
0
100
AcDbLine
 62
7
  6
CONTINUOUS
 10
2962.858828586
 20
1098.6680556763
 11
2962.858828586
 21
1088.6680556763
  0
LINE
  5
5C2
100
AcDbEntity
  8
000-SPOJ_MAT
100
AcDbLine
 62
7
  6
CONTINUOUS
 10
2962.8638538391
 20
1134.8680556763
 11
2962.8638538391
 21
1135.6680556763
  0
LINE
  5
5C3
100
AcDbEntity
  8
000-SPOJ_MAT
100
AcDbLine
 62
7
  6
CONTINUOUS
 10
2962.8643820854
 20
1131.8382381081
 11
2962.8643820854
 21
1127.8978732445
  0
LINE
  5
5C4
100
AcDbEntity
  8
000-SPOJ_MAT
100
AcDbLine
 62
7
  6
CONTINUOUS
 10
2962.8643820854
 20
1114.0978732445
 11
2962.8643820854
 21
1118.0382381081
  0
LINE
  5
5C5
100
AcDbEntity
  8
000-SPOJ_MAT
100
AcDbLine
 62
7
  6
CONTINUOUS
 10
2963.358828586
 20
1126.9630304231
 11
2963.358828586
 21
1134.3730809295
  0
LINE
  5
5C6
100
AcDbEntity
  8
AXIS
100
AcDbLine
 62
7
  6
CONTINUOUS
 10
2967.5853258941
 20
1059.4680556763
 11
2967.5853258941
 21
1039.4680556763
  0
LINE
  5
5C7
100
AcDbEntity
  8
AXIS
100
AcDbLine
 62
7
  6
CONTINUOUS
 10
2969.358828586
 20
1059.4680556763
 11
2969.358828586
 21
1060.9680556763
  0
LINE
  5
5C8
100
AcDbEntity
  8
0
100
AcDbLine
 62
7
  6
CONTINUOUS
 10
2969.858828586
 20
1126.4680556763
 11
2969.858828586
 21
1179.4680556763
  0
LINE
  5
5C9
100
AcDbEntity
  8
0
100
AcDbLine
 62
7
  6
CONTINUOUS
 10
2970.358828586
 20
1031.9680556763
 11
2970.358828586
 21
1072.4680556763
  0
LINE
  5
5CA
100
AcDbEntity
  8
ROUND
100
AcDbLine
 62
7
  6
CONTINUOUS
 10
2970.7814472677
 20
930.4680556763
 11
2970.7814472677
 21
931.0160083398
  0
LINE
  5
5CB
100
AcDbEntity
  8
0
100
AcDbLine
 62
7
  6
CONTINUOUS
 10
2971.358828586
 20
930.9680556763
 11
2971.358828586
 21
1018.2367738367
  0
LINE
  5
5CC
100
AcDbEntity
  8
AXIS
100
AcDbLine
 62
7
  6
CONTINUOUS
 10
2972.358828586
 20
831.9679958969
 11
2972.358828586
 21
929.4680556763
  0
LINE
  5
5CD
100
AcDbEntity
  8
0
100
AcDbLine
 62
7
  6
CONTINUOUS
 10
2973.358828586
 20
1119.4680556763
 11
2973.358828586
 21
1109.4680556763
  0
LINE
  5
5CE
100
AcDbEntity
  8
0
100
AcDbLine
 62
7
  6
CONTINUOUS
 10
2976.358828586
 20
1020.4680556763
 11
2976.358828586
 21
1072.4680556763
  0
LINE
  5
5CF
100
AcDbEntity
  8
0
100
AcDbLine
 62
7
  6
CONTINUOUS
 10
2976.858828586
 20
1179.4680556763
 11
2976.858828586
 21
1126.4680556763
  0
LINE
  5
5D0
100
AcDbEntity
  8
AXIS
100
AcDbLine
 62
7
  6
CONTINUOUS
 10
2977.358828586
 20
1059.4680556763
 11
2977.358828586
 21
1060.9680556763
  0
LINE
  5
5D1
100
AcDbEntity
  8
0
100
AcDbLine
 62
7
  6
CONTINUOUS
 10
2978.358828586
 20
1160.7705769299
 11
2978.358828586
 21
1146.7180556763
  0
LINE
  5
5D2
100
AcDbEntity
  8
0
100
AcDbLine
 62
7
  6
CONTINUOUS
 10
2978.958828586
 20
1149.1680556763
 11
2978.958828586
 21
1156.7680556763
  0
LINE
  5
5D3
100
AcDbEntity
  8
AXIS
100
AcDbLine
 62
7
  6
CONTINUOUS
 10
2979.1323312779
 20
1059.4680556763
 11
2979.1323312779
 21
1039.4680556763
  0
LINE
  5
5D4
100
AcDbEntity
  8
000-SPOJ_MAT
100
AcDbLine
 62
7
  6
CONTINUOUS
 10
2983.358828586
 20
1126.9630304231
 11
2983.358828586
 21
1134.3730809295
  0
LINE
  5
5D5
100
AcDbEntity
  8
000-SPOJ_MAT
100
AcDbLine
 62
7
  6
CONTINUOUS
 10
2983.8532750865
 20
1131.8382381081
 11
2983.8532750865
 21
1127.8978732445
  0
LINE
  5
5D6
100
AcDbEntity
  8
000-SPOJ_MAT
100
AcDbLine
 62
7
  6
CONTINUOUS
 10
2983.8532750865
 20
1114.0978732445
 11
2983.8532750865
 21
1118.0382381081
  0
LINE
  5
5D7
100
AcDbEntity
  8
000-SPOJ_MAT
100
AcDbLine
 62
7
  6
CONTINUOUS
 10
2983.8538033328
 20
1134.8680556763
 11
2983.8538033328
 21
1135.6680556763
  0
LINE
  5
5D8
100
AcDbEntity
  8
0
100
AcDbLine
 62
7
  6
CONTINUOUS
 10
2983.858828586
 20
1098.6680556763
 11
2983.858828586
 21
1088.6680556763
  0
LINE
  5
5D9
100
AcDbEntity
  8
0
100
AcDbLine
 62
7
  6
CONTINUOUS
 10
2986.858828586
 20
1140.6680556763
 11
2986.858828586
 21
1136.4680556763
  0
LINE
  5
5DA
100
AcDbEntity
  8
0
100
AcDbLine
 62
7
  6
CONTINUOUS
 10
2987.358828586
 20
1083.4680556763
 11
2987.358828586
 21
1112.6680556763
  0
LINE
  5
5DB
100
AcDbEntity
  8
0
100
AcDbLine
 62
7
  6
CONTINUOUS
 10
2987.358828586
 20
1133.2680556763
 11
2987.358828586
 21
1135.6680556763
  0
LINE
  5
5DC
100
AcDbEntity
  8
000-SPOJ_MAT
100
AcDbLine
 62
7
  6
CONTINUOUS
 10
2987.6060518362
 20
1131.8382381081
 11
2987.6060518362
 21
1127.8978732445
  0
LINE
  5
5DD
100
AcDbEntity
  8
000-SPOJ_MAT
100
AcDbLine
 62
7
  6
CONTINUOUS
 10
2987.6060518362
 20
1114.0978732445
 11
2987.6060518362
 21
1118.0382381081
  0
LINE
  5
5DE
100
AcDbEntity
  8
000-SPOJ_MAT
100
AcDbLine
 62
7
  6
CONTINUOUS
 10
2995.1116053357
 20
1131.8382381081
 11
2995.1116053357
 21
1127.8978732445
  0
LINE
  5
5DF
100
AcDbEntity
  8
000-SPOJ_MAT
100
AcDbLine
 62
7
  6
CONTINUOUS
 10
2995.1116053357
 20
1114.0978732445
 11
2995.1116053357
 21
1118.0382381081
  0
LINE
  5
5E0
100
AcDbEntity
  8
0
100
AcDbLine
 62
7
  6
CONTINUOUS
 10
2995.358828586
 20
1083.4680556763
 11
2995.358828586
 21
1112.6680556763
  0
LINE
  5
5E1
100
AcDbEntity
  8
0
100
AcDbLine
 62
7
  6
CONTINUOUS
 10
2995.358828586
 20
1133.2680556763
 11
2995.358828586
 21
1135.6680556763
  0
LINE
  5
5E2
100
AcDbEntity
  8
0
100
AcDbLine
 62
7
  6
CONTINUOUS
 10
2996.858828586
 20
1140.6680556763
 11
2996.858828586
 21
1136.4680556763
  0
LINE
  5
5E3
100
AcDbEntity
  8
000-SPOJ_MAT
100
AcDbLine
 62
7
  6
CONTINUOUS
 10
2998.8643820854
 20
1131.8382381081
 11
2998.8643820854
 21
1127.8978732445
  0
LINE
  5
5E4
100
AcDbEntity
  8
000-SPOJ_MAT
100
AcDbLine
 62
7
  6
CONTINUOUS
 10
2998.8643820854
 20
1114.0978732445
 11
2998.8643820854
 21
1118.0382381081
  0
LINE
  5
5E5
100
AcDbEntity
  8
0
100
AcDbLine
 62
7
  6
CONTINUOUS
 10
2999.858828586
 20
1098.6680556763
 11
2999.858828586
 21
1088.6680556763
  0
LINE
  5
5E6
100
AcDbEntity
  8
000-SPOJ_MAT
100
AcDbLine
 62
7
  6
CONTINUOUS
 10
2999.8638538391
 20
1134.8680556763
 11
2999.8638538391
 21
1135.6680556763
  0
LINE
  5
5E7
100
AcDbEntity
  8
000-SPOJ_MAT
100
AcDbLine
 62
7
  6
CONTINUOUS
 10
3000.358828586
 20
1126.9630304231
 11
3000.358828586
 21
1134.3730809295
  0
LINE
  5
5E8
100
AcDbEntity
  8
0
100
AcDbLine
 62
7
  6
CONTINUOUS
 10
3003.358828586
 20
1126.4680556763
 11
3003.358828586
 21
1109.4680556763
  0
LINE
  5
5E9
100
AcDbEntity
  8
0
100
AcDbLine
 62
6
  6
CONTINUOUS
 10
3003.358828586
 20
1134.0680556763
 11
3003.358828586
 21
1136.0680556763
  0
LINE
  5
5EA
100
AcDbEntity
  8
0
100
AcDbLine
 62
6
  6
CONTINUOUS
 10
3007.708828586
 20
1122.7530556763
 11
3007.708828586
 21
1131.8930556763
  0
LINE
  5
5EB
100
AcDbEntity
  8
0
100
AcDbLine
 62
6
  6
CONTINUOUS
 10
3008.858828586
 20
1120.1980556763
 11
3008.858828586
 21
1120.9280556763
  0
LINE
  5
5EC
100
AcDbEntity
  8
0
100
AcDbLine
 62
6
  6
CONTINUOUS
 10
3010.658828586
 20
1137.0680556763
 11
3010.658828586
 21
1139.9580556763
  0
LINE
  5
5ED
100
AcDbEntity
  8
0
100
AcDbLine
 62
6
  6
CONTINUOUS
 10
3016.058828586
 20
1137.0680556763
 11
3016.058828586
 21
1138.5383973024
  0
LINE
  5
5EE
100
AcDbEntity
  8
0
100
AcDbLine
 62
6
  6
CONTINUOUS
 10
3017.858828586
 20
1120.1980556763
 11
3017.858828586
 21
1120.9280556763
  0
LINE
  5
5EF
100
AcDbEntity
  8
0
100
AcDbLine
 62
6
  6
CONTINUOUS
 10
3019.008828586
 20
1122.7530556763
 11
3019.008828586
 21
1131.8930556763
  0
LINE
  5
5F0
100
AcDbEntity
  8
0
100
AcDbLine
 62
7
  6
CONTINUOUS
 10
3020.108828586
 20
1141.4667226454
 11
3020.108828586
 21
1139.0549279672
  0
LINE
  5
5F1
100
AcDbEntity
  8
0
100
AcDbLine
 62
7
  6
CONTINUOUS
 10
3020.108828586
 20
1134.522331831
 11
3020.108828586
 21
1131.468224191
  0
LINE
  5
5F2
100
AcDbEntity
  8
0
100
AcDbLine
 62
7
  6
CONTINUOUS
 10
3021.608828586
 20
1141.4667226454
 11
3021.608828586
 21
1138.4137795216
  0
LINE
  5
5F3
100
AcDbEntity
  8
0
100
AcDbLine
 62
7
  6
CONTINUOUS
 10
3021.608828586
 20
1134.522331831
 11
3021.608828586
 21
1131.468224191
  0
LINE
  5
5F4
100
AcDbEntity
  8
0
100
AcDbLine
 62
7
  6
CONTINUOUS
 10
2974.858824461
 20
934.4734291808
 11
2976.8574690501
 21
1024.3457730303
  0
LINE
  5
5F5
100
AcDbEntity
  8
0
100
AcDbLine
 62
7
  6
CONTINUOUS
 10
2975.8588249473
 20
934.4623330672
 11
2977.8572218618
 21
1024.3235398219
  0
LINE
  5
5F6
100
AcDbEntity
  8
AXIS
100
AcDbLine
 62
7
  6
CONTINUOUS
 10
3023.358828586
 20
1098.6680556763
 11
3023.358828586
 21
1118.6680556763
  0
LINE
  5
5F7
100
AcDbEntity
  8
0
100
AcDbLine
 62
6
  6
CONTINUOUS
 10
3023.358828586
 20
1134.0680556763
 11
3023.358828586
 21
1136.0680556763
  0
LINE
  5
5F8
100
AcDbEntity
  8
0
100
AcDbLine
 62
7
  6
CONTINUOUS
 10
2980.3810798564
 20
1154.3219185833
 11
2980.3589915825
 21
1154.4114313493
  0
LINE
  5
5F9
100
AcDbEntity
  8
0
100
AcDbLine
 62
7
  6
CONTINUOUS
 10
2980.3811796025
 20
1152.1563815971
 11
2980.3589915825
 21
1152.2463678398
  0
LWPOLYLINE
  5
5FA
100
AcDbEntity
  8
0
100
AcDbPolyline
 62
9
  6
CONTINUOUS
 90
5
 70
0
 10
3021.608828586
 20
1141.3529200798
 10
3021.5517382353
 20
1141.6333235813
 10
3021.3891586718
 20
1141.8710381915
 10
3021.1458411602
 20
1142.029874016
 10
3020.858828586
 20
1142.0856497403
  0
LINE
  5
5FB
100
AcDbEntity
  8
0
100
AcDbLine
 62
2
  6
CONTINUOUS
 10
3349.358828586
 20
1099.4680556763
 11
3349.358828586
 21
1059.4680556763
  0
LINE
  5
5FC
100
AcDbEntity
  8
AXIS
100
AcDbLine
 62
7
  6
CONTINUOUS
 10
3352.358828586
 20
1099.4680556763
 11
3352.358828586
 21
1000.4685800346
  0
LINE
  5
5FD
100
AcDbEntity
  8
AXIS
100
AcDbLine
 62
7
  6
CONTINUOUS
 10
3357.358828586
 20
1099.4680556763
 11
3357.358828586
 21
1000.4685800346
  0
LINE
  5
5FE
100
AcDbEntity
  8
0
100
AcDbLine
 62
2
  6
CONTINUOUS
 10
3364.358828586
 20
1112.4680556763
 11
3364.358828586
 21
1059.4680556763
  0
LINE
  5
5FF
100
AcDbEntity
  8
0
100
AcDbLine
 62
7
  6
CONTINUOUS
 10
3367.358828586
 20
1116.4680556763
 11
3367.358828586
 21
1112.4680556763
  0
LINE
  5
600
100
AcDbEntity
  8
AXIS
100
AcDbLine
 62
7
  6
CONTINUOUS
 10
3367.358828586
 20
999.4685800346
 11
3367.358828586
 21
1112.4680556763
  0
LINE
  5
601
100
AcDbEntity
  8
AXIS
100
AcDbLine
 62
7
  6
CONTINUOUS
 10
3372.358828586
 20
999.4685800346
 11
3372.358828586
 21
1119.4680556763
  0
LINE
  5
602
100
AcDbEntity
  8
0
100
AcDbLine
 62
6
  6
CONTINUOUS
 10
3008.858828586
 20
1120.1980556763
 11
3009.124528586
 21
1119.4680556763
  0
LINE
  5
603
100
AcDbEntity
  8
0
100
AcDbLine
 62
6
  6
CONTINUOUS
 10
3007.708828586
 20
1122.7530556763
 11
3008.372828586
 21
1120.9280556763
  0
LINE
  5
604
100
AcDbEntity
  8
0
100
AcDbLine
 62
7
  6
CONTINUOUS
 10
2652.358828586
 20
1116.4680556763
 11
2649.358828586
 21
1119.4680556763
  0
LWPOLYLINE
  5
605
100
AcDbEntity
  8
ROUND
100
AcDbPolyline
 62
7
  6
CONTINUOUS
 90
10
 70
0
 10
2971.6519632687
 20
929.9776133754
 10
2971.5875493696
 20
930.0723562691
 10
2971.5125233167
 20
930.1593351668
 10
2971.4276878973
 20
930.2374913249
 10
2971.3337001939
 20
930.3059596483
 10
2971.2322446602
 20
930.3633208656
 10
2971.125283107
 20
930.4085489195
 10
2971.013319245
 20
930.4414461974
 10
2970.8979047225
 20
930.4614109258
 10
2970.7814472677
 20
930.4680556763
  0
LWPOLYLINE
  5
606
100
AcDbEntity
  8
000-SPOJ_MAT
100
AcDbPolyline
 62
7
  6
CONTINUOUS
 90
11
 70
0
 10
2947.8532750865
 20
1114.0978732445
 10
2948.2642276821
 20
1113.7225377005
 10
2948.6477499113
 20
1113.4430239219
 10
2949.0152235033
 20
1113.2475205545
 10
2949.3742136037
 20
1113.1310794443
 10
2949.7296992347
 20
1113.0923197454
 10
2950.0851840034
 20
1113.1310948156
 10
2950.4441810831
 20
1113.2475539052
 10
2950.8116454218
 20
1113.4430671386
 10
2951.1952159715
 20
1113.722633668
 10
2951.6060518362
 20
1114.0978732445
  0
LWPOLYLINE
  5
607
100
AcDbEntity
  8
000-SPOJ_MAT
100
AcDbPolyline
 62
7
  6
CONTINUOUS
 90
11
 70
0
 10
2951.6060518362
 20
1118.0382381081
 10
2951.1952175673
 20
1118.4134763726
 10
2950.8116491159
 20
1118.6930418802
 10
2950.4441847146
 20
1118.8885558878
 10
2950.0851860041
 20
1119.0050161019
 10
2949.7296987504
 20
1119.0437916072
 10
2949.3742106374
 20
1119.0050312633
 10
2949.0152189101
 20
1118.8885888257
 10
2948.6477450732
 20
1118.6930843744
 10
2948.2642254454
 20
1118.4135718133
 10
2947.8532750865
 20
1118.0382381081
  0
LWPOLYLINE
  5
608
100
AcDbEntity
  8
000-SPOJ_MAT
100
AcDbPolyline
 62
7
  6
CONTINUOUS
 90
11
 70
0
 10
2959.1116053357
 20
1114.0978732445
 10
2959.5225579313
 20
1113.7225377005
 10
2959.9060801605
 20
1113.4430239219
 10
2960.2735537525
 20
1113.2475205545
 10
2960.6325438529
 20
1113.1310794443
 10
2960.9880294839
 20
1113.0923197454
 10
2961.3435142526
 20
1113.1310948156
 10
2961.7025113323
 20
1113.2475539052
 10
2962.069975671
 20
1113.4430671386
 10
2962.4535462207
 20
1113.722633668
 10
2962.8643820854
 20
1114.0978732445
  0
LWPOLYLINE
  5
609
100
AcDbEntity
  8
000-SPOJ_MAT
100
AcDbPolyline
 62
7
  6
CONTINUOUS
 90
11
 70
0
 10
2947.8532750865
 20
1127.8978732445
 10
2948.2642276797
 20
1127.5225377025
 10
2948.6477499098
 20
1127.2430239229
 10
2949.0152235037
 20
1127.0475205543
 10
2949.374213606
 20
1126.9310794438
 10
2949.7296992384
 20
1126.8923197454
 10
2950.0851840076
 20
1126.9310948165
 10
2950.4441810863
 20
1127.0475539066
 10
2950.8116454249
 20
1127.2430671406
 10
2951.1952159668
 20
1127.5226336641
 10
2951.6060518362
 20
1127.8978732445
  0
LWPOLYLINE
  5
60A
100
AcDbEntity
  8
000-SPOJ_MAT
100
AcDbPolyline
 62
7
  6
CONTINUOUS
 90
11
 70
0
 10
2962.8643820854
 20
1118.0382381081
 10
2962.4535478165
 20
1118.4134763726
 10
2962.0699793651
 20
1118.6930418802
 10
2961.7025149638
 20
1118.8885558878
 10
2961.3435162533
 20
1119.0050161019
 10
2960.9880289996
 20
1119.0437916072
 10
2960.6325408866
 20
1119.0050312633
 10
2960.2735491593
 20
1118.8885888257
 10
2959.9060753224
 20
1118.6930843744
 10
2959.5225556946
 20
1118.4135718133
 10
2959.1116053357
 20
1118.0382381081
  0
LWPOLYLINE
  5
60B
100
AcDbEntity
  8
000-SPOJ_MAT
100
AcDbPolyline
 62
7
  6
CONTINUOUS
 90
11
 70
0
 10
2951.6060518362
 20
1131.8382381081
 10
2951.1952175613
 20
1132.2134763776
 10
2950.8116491161
 20
1132.4930418801
 10
2950.4441847149
 20
1132.6885558877
 10
2950.0851860067
 20
1132.8050161013
 10
2949.7296987544
 20
1132.8437916072
 10
2949.3742106418
 20
1132.8050312642
 10
2949.0152189139
 20
1132.6885888274
 10
2948.6477450754
 20
1132.4930843758
 10
2948.2642254447
 20
1132.2135718127
 10
2947.8532750865
 20
1131.8382381081
  0
LWPOLYLINE
  5
60C
100
AcDbEntity
  8
000-SPOJ_MAT
100
AcDbPolyline
 62
7
  6
CONTINUOUS
 90
11
 70
0
 10
2959.1116053357
 20
1127.8978732445
 10
2959.5225579289
 20
1127.5225377025
 10
2959.906080159
 20
1127.2430239229
 10
2960.2735537529
 20
1127.0475205543
 10
2960.6325438552
 20
1126.9310794438
 10
2960.9880294876
 20
1126.8923197454
 10
2961.3435142568
 20
1126.9310948165
 10
2961.7025113355
 20
1127.0475539066
 10
2962.0699756741
 20
1127.2430671406
 10
2962.453546216
 20
1127.5226336641
 10
2962.8643820854
 20
1127.8978732445
  0
LWPOLYLINE
  5
60D
100
AcDbEntity
  8
000-SPOJ_MAT
100
AcDbPolyline
 62
7
  6
CONTINUOUS
 90
11
 70
0
 10
2962.8643820854
 20
1131.8382381081
 10
2962.4534294899
 20
1132.2135736521
 10
2962.0699072606
 20
1132.4930874307
 10
2961.7024336686
 20
1132.6885907981
 10
2961.3434435682
 20
1132.8050319083
 10
2960.9879579372
 20
1132.8437916072
 10
2960.6324731685
 20
1132.805016537
 10
2960.2734760888
 20
1132.6885574474
 10
2959.9060117501
 20
1132.493044214
 10
2959.5224412004
 20
1132.2134776846
 10
2959.1116053357
 20
1131.8382381081
  0
LWPOLYLINE
  5
60E
100
AcDbEntity
  8
000-SPOJ_MAT
100
AcDbPolyline
 62
7
  6
CONTINUOUS
 90
11
 70
0
 10
2983.8532750865
 20
1114.0978732445
 10
2984.2642276821
 20
1113.7225377005
 10
2984.6477499113
 20
1113.4430239219
 10
2985.0152235033
 20
1113.2475205545
 10
2985.3742136037
 20
1113.1310794443
 10
2985.7296992347
 20
1113.0923197454
 10
2986.0851840034
 20
1113.1310948156
 10
2986.4441810831
 20
1113.2475539052
 10
2986.8116454218
 20
1113.4430671386
 10
2987.1952159715
 20
1113.722633668
 10
2987.6060518362
 20
1114.0978732445
  0
LWPOLYLINE
  5
60F
100
AcDbEntity
  8
000-SPOJ_MAT
100
AcDbPolyline
 62
7
  6
CONTINUOUS
 90
11
 70
0
 10
2987.6060518362
 20
1118.0382381081
 10
2987.1952175673
 20
1118.4134763726
 10
2986.8116491159
 20
1118.6930418802
 10
2986.4441847146
 20
1118.8885558878
 10
2986.0851860041
 20
1119.0050161019
 10
2985.7296987504
 20
1119.0437916072
 10
2985.3742106374
 20
1119.0050312633
 10
2985.0152189101
 20
1118.8885888257
 10
2984.6477450732
 20
1118.6930843744
 10
2984.2642254454
 20
1118.4135718133
 10
2983.8532750865
 20
1118.0382381081
  0
LWPOLYLINE
  5
610
100
AcDbEntity
  8
000-SPOJ_MAT
100
AcDbPolyline
 62
7
  6
CONTINUOUS
 90
11
 70
0
 10
2995.1116053357
 20
1114.0978732445
 10
2995.5225579313
 20
1113.7225377005
 10
2995.9060801605
 20
1113.4430239219
 10
2996.2735537525
 20
1113.2475205545
 10
2996.6325438529
 20
1113.1310794443
 10
2996.9880294839
 20
1113.0923197454
 10
2997.3435142526
 20
1113.1310948156
 10
2997.7025113323
 20
1113.2475539052
 10
2998.069975671
 20
1113.4430671386
 10
2998.4535462207
 20
1113.722633668
 10
2998.8643820854
 20
1114.0978732445
  0
LWPOLYLINE
  5
611
100
AcDbEntity
  8
000-SPOJ_MAT
100
AcDbPolyline
 62
7
  6
CONTINUOUS
 90
11
 70
0
 10
2983.8532750865
 20
1127.8978732445
 10
2984.2642276797
 20
1127.5225377025
 10
2984.6477499098
 20
1127.2430239229
 10
2985.0152235037
 20
1127.0475205543
 10
2985.374213606
 20
1126.9310794438
 10
2985.7296992384
 20
1126.8923197454
 10
2986.0851840076
 20
1126.9310948165
 10
2986.4441810863
 20
1127.0475539066
 10
2986.8116454249
 20
1127.2430671406
 10
2987.1952159668
 20
1127.5226336641
 10
2987.6060518362
 20
1127.8978732445
  0
LWPOLYLINE
  5
612
100
AcDbEntity
  8
000-SPOJ_MAT
100
AcDbPolyline
 62
7
  6
CONTINUOUS
 90
11
 70
0
 10
2998.8643820854
 20
1118.0382381081
 10
2998.4535478165
 20
1118.4134763726
 10
2998.0699793651
 20
1118.6930418802
 10
2997.7025149638
 20
1118.8885558878
 10
2997.3435162533
 20
1119.0050161019
 10
2996.9880289996
 20
1119.0437916072
 10
2996.6325408866
 20
1119.0050312633
 10
2996.2735491593
 20
1118.8885888257
 10
2995.9060753224
 20
1118.6930843744
 10
2995.5225556946
 20
1118.4135718133
 10
2995.1116053357
 20
1118.0382381081
  0
LWPOLYLINE
  5
613
100
AcDbEntity
  8
000-SPOJ_MAT
100
AcDbPolyline
 62
7
  6
CONTINUOUS
 90
11
 70
0
 10
2987.6060518362
 20
1131.8382381081
 10
2987.1952175613
 20
1132.2134763776
 10
2986.8116491161
 20
1132.4930418801
 10
2986.4441847149
 20
1132.6885558877
 10
2986.0851860067
 20
1132.8050161013
 10
2985.7296987544
 20
1132.8437916072
 10
2985.3742106418
 20
1132.8050312642
 10
2985.0152189139
 20
1132.6885888274
 10
2984.6477450754
 20
1132.4930843758
 10
2984.2642254447
 20
1132.2135718127
 10
2983.8532750865
 20
1131.8382381081
  0
LWPOLYLINE
  5
614
100
AcDbEntity
  8
000-SPOJ_MAT
100
AcDbPolyline
 62
7
  6
CONTINUOUS
 90
11
 70
0
 10
2995.1116053357
 20
1127.8978732445
 10
2995.5225579289
 20
1127.5225377025
 10
2995.906080159
 20
1127.2430239229
 10
2996.2735537529
 20
1127.0475205543
 10
2996.6325438552
 20
1126.9310794438
 10
2996.9880294876
 20
1126.8923197454
 10
2997.3435142568
 20
1126.9310948165
 10
2997.7025113355
 20
1127.0475539066
 10
2998.0699756741
 20
1127.2430671406
 10
2998.453546216
 20
1127.5226336641
 10
2998.8643820854
 20
1127.8978732445
  0
LINE
  5
615
100
AcDbEntity
  8
000-SPOJ_MAT
100
AcDbLine
 62
7
  6
CONTINUOUS
 10
2947.8532750865
 20
1114.0978732445
 11
2949.2830926547
 21
1112.6680556763
  0
LINE
  5
616
100
AcDbEntity
  8
000-SPOJ_MAT
100
AcDbLine
 62
7
  6
CONTINUOUS
 10
2946.358828586
 20
1126.9630304231
 11
2946.8538033328
 21
1126.4680556763
  0
LINE
  5
617
100
AcDbEntity
  8
000-SPOJ_MAT
100
AcDbLine
 62
7
  6
CONTINUOUS
 10
2949.2830926547
 20
1126.4680556763
 11
2947.8532750865
 21
1127.8978732445
  0
LINE
  5
618
100
AcDbEntity
  8
000-SPOJ_MAT
100
AcDbLine
 62
7
  6
CONTINUOUS
 10
2961.4345645172
 20
1119.4680556763
 11
2962.8643820854
 21
1118.0382381081
  0
LINE
  5
619
100
AcDbEntity
  8
000-SPOJ_MAT
100
AcDbLine
 62
7
  6
CONTINUOUS
 10
2962.8643820854
 20
1131.8382381081
 11
2961.4345645172
 21
1133.2680556763
  0
LINE
  5
61A
100
AcDbEntity
  8
0
100
AcDbLine
 62
7
  6
CONTINUOUS
 10
2958.5588285829
 20
1136.4680556794
 11
2959.3588285821
 21
1135.6680556801
  0
LINE
  5
61B
100
AcDbEntity
  8
000-SPOJ_MAT
100
AcDbLine
 62
7
  6
CONTINUOUS
 10
2963.358828586
 20
1134.3730809295
 11
2962.8638538391
 21
1134.8680556763
  0
LINE
  5
61C
100
AcDbEntity
  8
000-SPOJ_MAT
100
AcDbLine
 62
7
  6
CONTINUOUS
 10
2983.8532750865
 20
1114.0978732445
 11
2985.2830926547
 21
1112.6680556763
  0
LINE
  5
61D
100
AcDbEntity
  8
000-SPOJ_MAT
100
AcDbLine
 62
7
  6
CONTINUOUS
 10
2983.358828586
 20
1126.9630304231
 11
2983.8538033328
 21
1126.4680556763
  0
LINE
  5
61E
100
AcDbEntity
  8
000-SPOJ_MAT
100
AcDbLine
 62
7
  6
CONTINUOUS
 10
2985.2830926547
 20
1126.4680556763
 11
2983.8532750865
 21
1127.8978732445
  0
LINE
  5
61F
100
AcDbEntity
  8
000-SPOJ_MAT
100
AcDbLine
 62
7
  6
CONTINUOUS
 10
2997.4345645172
 20
1119.4680556763
 11
2998.8643820854
 21
1118.0382381081
  0
LINE
  5
620
100
AcDbEntity
  8
000-SPOJ_MAT
100
AcDbLine
 62
7
  6
CONTINUOUS
 10
2998.8643820854
 20
1131.8382381081
 11
2997.4345645172
 21
1133.2680556763
  0
LINE
  5
621
100
AcDbEntity
  8
0
100
AcDbLine
 62
7
  6
CONTINUOUS
 10
2994.5588285839
 20
1136.4680556784
 11
2995.3588285834
 21
1135.6680556789
  0
LINE
  5
622
100
AcDbEntity
  8
000-SPOJ_MAT
100
AcDbLine
 62
7
  6
CONTINUOUS
 10
3000.358828586
 20
1134.3730809295
 11
2999.8638538391
 21
1134.8680556763
  0
LWPOLYLINE
  5
623
100
AcDbEntity
  8
0
100
AcDbPolyline
 62
7
  6
CONTINUOUS
 90
31
 70
0
 10
2872.358828586
 20
831.9680556763
 10
2872.2028309004
 20
831.9598797661
 10
2872.0479760267
 20
831.9354359741
 10
2871.8960994715
 20
831.8948906389
 10
2871.7490562917
 20
831.8384953582
 10
2871.6085965003
 20
831.7668907249
 10
2871.4763599149
 20
831.6809764865
 10
2871.3539291161
 20
831.5816770963
 10
2871.2427269154
 20
831.4701288994
 10
2871.1439035312
 20
831.3477334795
 10
2871.0585518091
 20
831.2159060894
 10
2870.9876478339
 20
831.0761140343
 10
2870.9317605963
 20
830.9299135253
 10
2870.8913675396
 20
830.7787579585
 10
2870.8669921007
 20
830.6241002646
 10
2870.8588884585
 20
830.4675257266
 10
2870.8671328342
 20
830.3106669273
 10
2870.8918185307
 20
830.155233637
 10
2870.9327835351
 20
830.0030508571
 10
2870.9894710057
 20
829.8558991775
 10
2871.0612617777
 20
829.7155131262
 10
2871.1473983202
 20
829.5835743749
 10
2871.2467487658
 20
829.4615193485
 10
2871.3581359039
 20
829.3506505819
 10
2871.4803760316
 20
829.2522252047
 10
2871.6120650636
 20
829.1672232586
 10
2871.7516995677
 20
829.0964418223
 10
2871.8977975942
 20
829.0406716224
 10
2872.0487903932
 20
829.0005032437
 10
2872.203015558
 20
828.976212231
 10
2872.358828586
 20
828.9680556763
  0
LINE
  5
624
100
AcDbEntity
  8
0
100
AcDbLine
 62
7
  6
CONTINUOUS
 10
2872.358828586
 20
828.9680556763
 11
2972.358828586
 21
828.9681154557
  0
LINE
  5
625
100
AcDbEntity
  8
0
100
AcDbLine
 62
7
  6
CONTINUOUS
 10
2972.358828586
 20
831.9679958969
 11
2872.358828586
 21
831.9680556763
  0
LWPOLYLINE
  5
626
100
AcDbEntity
  8
0
100
AcDbPolyline
 62
7
  6
CONTINUOUS
 90
4
 70
0
 10
3019.9359514979
 20
1135.2843077699
 10
3019.9604189769
 20
1135.2644311484
 10
3019.9958250262
 20
1135.2371310027
 10
3020.0337988091
 20
1135.2096572759
  0
LINE
  5
627
100
AcDbEntity
  8
0
100
AcDbLine
 62
7
  6
CONTINUOUS
 10
3017.7825412275
 20
1137.0940330656
 11
3018.7561033352
 21
1136.2768006227
  0
LINE
  5
628
100
AcDbEntity
  8
0
100
AcDbLine
 62
7
  6
CONTINUOUS
 10
3021.8508228048
 20
1137.5937726388
 11
3021.7556172144
 21
1137.6730640793
  0
LWPOLYLINE
  5
629
100
AcDbEntity
  8
0
100
AcDbPolyline
 62
7
  6
CONTINUOUS
 90
5
 70
0
 10
3012.1159319499
 20
1141.8506150574
 10
3013.705914866
 20
1140.5156754286
 10
3015.1981409908
 20
1139.2626481271
 10
3016.5742200038
 20
1138.1047060752
 10
3017.7825412275
 20
1137.0940330656
  0
LINE
  5
62A
100
AcDbEntity
  8
0
100
AcDbLine
 62
7
  6
CONTINUOUS
 10
3003.1302556345
 20
1149.3955947426
 11
3012.1159319499
 21
1141.8506150574
  0
LWPOLYLINE
  5
62B
100
AcDbEntity
  8
0
100
AcDbPolyline
 62
7
  6
CONTINUOUS
 90
3
 70
0
 10
2997.1591071066
 20
1154.410220631
 10
3001.1798337768
 20
1151.0335393903
 10
3003.1302556345
 20
1149.3955947426
  0
LWPOLYLINE
  5
62C
100
AcDbEntity
  8
0
100
AcDbPolyline
 62
7
  6
CONTINUOUS
 90
15
 70
0
 10
3012.3763572749
 20
1145.5498698922
 10
3006.9699494405
 20
1150.0895716445
 10
3005.0599507195
 20
1151.6937690658
 10
3003.1093685307
 20
1153.3315268204
 10
3001.1221130262
 20
1154.9998203298
 10
2999.0881967898
 20
1156.7076881341
 10
2996.9842929979
 20
1158.4742903713
 10
2994.791749129
 20
1160.3153079224
 10
2992.5191680917
 20
1162.2247207694
 10
2990.26795749
 20
1164.1154387032
 10
2988.1735735328
 20
1165.8728125385
 10
2986.3556525607
 20
1167.3992731485
 10
2984.8559874337
 20
1168.6589912323
 10
2983.7134796908
 20
1169.617716047
 10
2982.7845686096
 20
1170.3979734474
  0
LINE
  5
62D
100
AcDbEntity
  8
0
100
AcDbLine
 62
7
  6
CONTINUOUS
 10
3017.1273159959
 20
1141.5601642646
 11
3012.3763572749
 21
1145.5498698922
  0
LWPOLYLINE
  5
62E
100
AcDbEntity
  8
0
100
AcDbPolyline
 62
7
  6
CONTINUOUS
 90
9
 70
0
 10
2981.7845920711
 20
1167.3205540645
 10
2982.9264762748
 20
1166.3610577606
 10
2984.426583284
 20
1165.101844663
 10
2986.2444523867
 20
1163.5753050025
 10
2988.337565992
 20
1161.816405643
 10
2990.5891327688
 20
1159.9261076455
 10
2992.8628044322
 20
1158.017997892
 10
2995.0552675299
 20
1156.17689212
 10
2997.1591071066
 20
1154.410220631
  0
LINE
  5
62F
100
AcDbEntity
  8
0
100
AcDbLine
 62
7
  6
CONTINUOUS
 10
2980.8505769161
 20
1168.104585881
 11
2981.7845920711
 21
1167.3205540645
  0
LWPOLYLINE
  5
630
100
AcDbEntity
  8
0
100
AcDbPolyline
 62
7
  6
CONTINUOUS
 90
6
 70
0
 10
3021.7556172144
 20
1137.6730640793
 10
3021.3823945948
 20
1137.9873264662
 10
3020.6835222764
 20
1138.572190841
 10
3019.7102230032
 20
1139.3897527908
 10
3018.5057997381
 20
1140.4050793166
 10
3017.1273159959
 20
1141.5601642646
  0
LWPOLYLINE
  5
631
100
AcDbEntity
  8
0
100
AcDbPolyline
 62
7
  6
CONTINUOUS
 90
3
 70
0
 10
3018.7561033352
 20
1136.2768006227
 10
3019.4530117856
 20
1135.689617509
 10
3019.8270770227
 20
1135.3763766375
  0
LINE
  5
632
100
AcDbEntity
  8
0
100
AcDbLine
 62
7
  6
CONTINUOUS
 10
3019.8270770227
 20
1135.3763766375
 11
3019.9176299203
 21
1135.2997652827
  0
LWPOLYLINE
  5
633
100
AcDbEntity
  8
000-SPOJ_MAT
100
AcDbPolyline
 62
7
  6
CONTINUOUS
 90
11
 70
0
 10
2998.8643820854
 20
1131.8382381081
 10
2998.4534294899
 20
1132.2135736521
 10
2998.0699072606
 20
1132.4930874307
 10
2997.7024336686
 20
1132.6885907981
 10
2997.3434435682
 20
1132.8050319083
 10
2996.9879579372
 20
1132.8437916072
 10
2996.6324731685
 20
1132.805016537
 10
2996.2734760888
 20
1132.6885574474
 10
2995.9060117501
 20
1132.493044214
 10
2995.5224412004
 20
1132.2134776846
 10
2995.1116053357
 20
1131.8382381081
  0
LINE
  5
634
100
AcDbEntity
  8
0
100
AcDbLine
 62
6
  6
CONTINUOUS
 10
3023.358828586
 20
1136.0680556763
 11
3022.9443810044
 21
1136.4524797386
  0
LINE
  5
635
100
AcDbEntity
  8
ROUND
100
AcDbLine
 62
9
  6
CONTINUOUS
 10
2872.358828586
 20
929.4680556763
 11
2972.358828586
 21
929.4680556763
  0
LINE
  5
636
100
AcDbEntity
  8
0
100
AcDbLine
 62
7
  6
CONTINUOUS
 10
2873.358828586
 20
930.4680556763
 11
2970.7814472677
 21
930.4680556763
  0
LINE
  5
637
100
AcDbEntity
  8
ROUND
100
AcDbLine
 62
7
  6
CONTINUOUS
 10
2873.358828586
 20
930.4680556763
 11
2970.7814472677
 21
930.4680556763
  0
LINE
  5
638
100
AcDbEntity
  8
0
100
AcDbLine
 62
7
  6
CONTINUOUS
 10
2947.5824156786
 20
1038.1934805357
 11
2966.7423032802
 21
1031.9680556763
  0
LWPOLYLINE
  5
639
100
AcDbEntity
  8
000-SPOJ_MAT
100
AcDbPolyline
 62
7
  6
CONTINUOUS
 90
4
 70
0
 10
2946.358828586
 20
1128.2779849994
 10
2947.2887347148
 20
1127.7875874859
 10
2948.1571928543
 20
1127.422049548
 10
2948.4053629533
 20
1127.3457853776
  0
LWPOLYLINE
  5
63A
100
AcDbEntity
  8
000-SPOJ_MAT
100
AcDbPolyline
 62
7
  6
CONTINUOUS
 90
6
 70
0
 10
2963.358828586
 20
1133.0581263532
 10
2962.4289223186
 20
1133.5485239324
 10
2961.5604645867
 20
1133.9140617064
 10
2960.7279703409
 20
1134.1698922401
 10
2959.9146230072
 20
1134.3223067229
 10
2959.358828586
 20
1134.3573424351
  0
LWPOLYLINE
  5
63B
100
AcDbEntity
  8
0
100
AcDbPolyline
 62
7
  6
CONTINUOUS
 90
7
 70
0
 10
2982.7845686096
 20
1170.3979734474
 10
2982.4256133704
 20
1170.6244230741
 10
2982.017259929
 20
1170.7413125557
 10
2981.5923014591
 20
1170.7390166466
 10
2981.1849678536
 20
1170.6175991083
 10
2980.8280831669
 20
1170.3868313921
 10
2980.6640691586
 20
1170.2198972806
  0
LWPOLYLINE
  5
63C
100
AcDbEntity
  8
0
100
AcDbPolyline
 62
7
  6
CONTINUOUS
 90
34
 70
0
 10
3020.0337988091
 20
1135.2096572759
 10
3020.0744844055
 20
1135.1821603161
 10
3020.1178738445
 20
1135.1549042981
 10
3020.1635362744
 20
1135.128382873
 10
3020.2109913695
 20
1135.1030309085
 10
3020.2598008411
 20
1135.0791750783
 10
3020.3099473549
 20
1135.0568887488
 10
3020.3615151039
 20
1135.0362085568
 10
3020.4145318593
 20
1135.0172097181
 10
3020.4690229021
 20
1134.9999783507
 10
3020.525009803
 20
1134.9846118969
 10
3020.582509186
 20
1134.9712194597
 10
3020.6415314176
 20
1134.9599220735
 10
3020.7020792
 20
1134.9508529052
 10
3020.7641460507
 20
1134.9441573726
 10
3020.8277138071
 20
1134.9399932023
 10
3020.8927372464
 20
1134.9385301536
 10
3020.9591447235
 20
1134.9399466687
 10
3021.0268482926
 20
1134.9444276433
 10
3021.0957425597
 20
1134.9521635742
 10
3021.1657021947
 20
1134.9633493829
 10
3021.2365574957
 20
1134.9781776162
 10
3021.3080927971
 20
1134.9968307373
 10
3021.3800709771
 20
1135.0194811506
 10
3021.4522346426
 20
1135.0462893902
 10
3021.5243062278
 20
1135.0774020449
 10
3021.5959882779
 20
1135.1129496025
 10
3021.6669639342
 20
1135.1530442251
 10
3021.7368976347
 20
1135.1977774709
 10
3021.8054360488
 20
1135.2472179809
 10
3021.8722092541
 20
1135.3014091487
 10
3021.9368321722
 20
1135.3603667948
 10
3021.9989062738
 20
1135.4240768724
 10
3022.0427014512
 20
1135.4739487331
  0
LINE
  5
63D
100
AcDbEntity
  8
AXIS
100
AcDbLine
 62
7
  6
CONTINUOUS
 10
3372.358828586
 20
999.4680556763
 11
3367.358828586
 21
999.4680556763
  0
LINE
  5
63E
100
AcDbEntity
  8
AXIS
100
AcDbLine
 62
7
  6
CONTINUOUS
 10
2652.358828586
 20
999.4680556763
 11
2647.358828586
 21
999.4680556763
  0
LINE
  5
63F
100
AcDbEntity
  8
AXIS
100
AcDbLine
 62
7
  6
CONTINUOUS
 10
2662.358828586
 20
1000.4680556763
 11
2667.358828586
 21
1000.4680556763
  0
LINE
  5
640
100
AcDbEntity
  8
AXIS
100
AcDbLine
 62
7
  6
CONTINUOUS
 10
3352.358828586
 20
1000.4680556763
 11
3357.358828586
 21
1000.4680556763
  0
LINE
  5
641
100
AcDbEntity
  8
0
100
AcDbLine
 62
7
  6
CONTINUOUS
 10
2873.358828586
 20
1028.9680556763
 11
2970.358828586
 21
1028.9680556763
  0
LINE
  5
642
100
AcDbEntity
  8
AXIS
100
AcDbLine
 62
9
  6
CONTINUOUS
 10
3372.358828586
 20
1029.4680556763
 11
3367.358828586
 21
1029.4680556763
  0
LINE
  5
643
100
AcDbEntity
  8
AXIS
100
AcDbLine
 62
9
  6
CONTINUOUS
 10
2652.358828586
 20
1029.4680556763
 11
2647.358828586
 21
1029.4680556763
  0
LINE
  5
644
100
AcDbEntity
  8
AXIS
100
AcDbLine
 62
9
  6
CONTINUOUS
 10
2662.358828586
 20
1030.4680556763
 11
2667.358828586
 21
1030.4680556763
  0
LINE
  5
645
100
AcDbEntity
  8
AXIS
100
AcDbLine
 62
9
  6
CONTINUOUS
 10
3352.358828586
 20
1030.4680556763
 11
3357.358828586
 21
1030.4680556763
  0
LINE
  5
646
100
AcDbEntity
  8
0
100
AcDbLine
 62
9
  6
CONTINUOUS
 10
2973.358828586
 20
1030.9680556763
 11
2976.358828586
 21
1030.9680556763
  0
LINE
  5
647
100
AcDbEntity
  8
0
100
AcDbLine
 62
7
  6
CONTINUOUS
 10
2970.358828586
 20
1031.9680556763
 11
2873.358828586
 21
1031.9680556763
  0
LINE
  5
648
100
AcDbEntity
  8
0
100
AcDbLine
 62
9
  6
CONTINUOUS
 10
2897.1352414933
 20
1038.1934805357
 11
2947.5824156786
 21
1038.1934805357
  0
LINE
  5
649
100
AcDbEntity
  8
0
100
AcDbLine
 62
7
  6
CONTINUOUS
 10
2946.9643816898
 20
1038.2913675031
 11
2897.7532754821
 21
1038.2913675031
  0
LINE
  5
64A
100
AcDbEntity
  8
AXIS
100
AcDbLine
 62
7
  6
CONTINUOUS
 10
2967.5853258941
 20
1039.4680556763
 11
2970.358828586
 21
1039.4680556763
  0
LINE
  5
64B
100
AcDbEntity
  8
AXIS
100
AcDbLine
 62
7
  6
CONTINUOUS
 10
2976.358828586
 20
1039.4680556763
 11
2979.1323312779
 21
1039.4680556763
  0
LINE
  5
64C
100
AcDbEntity
  8
ROUND
100
AcDbLine
 62
7
  6
CONTINUOUS
 10
2908.858828586
 20
1041.3892544705
 11
2907.858828586
 21
1041.3892544705
  0
LINE
  5
64D
100
AcDbEntity
  8
ROUND
100
AcDbLine
 62
7
  6
CONTINUOUS
 10
2910.358828586
 20
1042.1900341921
 11
2906.358828586
 21
1042.1900341921
  0
LINE
  5
64E
100
AcDbEntity
  8
ROUND
100
AcDbLine
 62
9
  6
CONTINUOUS
 10
2906.358828586
 20
1046.3900341921
 11
2910.358828586
 21
1046.3900341921
  0
LINE
  5
64F
100
AcDbEntity
  8
ROUND
100
AcDbLine
 62
7
  6
CONTINUOUS
 10
2908.158828586
 20
1048.1900341921
 11
2908.558828586
 21
1048.1900341921
  0
LINE
  5
650
100
AcDbEntity
  8
0
100
AcDbLine
 62
2
  6
CONTINUOUS
 10
2670.358828586
 20
1059.4680556763
 11
2667.358828586
 21
1059.4680556763
  0
LINE
  5
651
100
AcDbEntity
  8
0
100
AcDbLine
 62
2
  6
CONTINUOUS
 10
2652.358828586
 20
1059.4680556763
 11
2655.358828586
 21
1059.4680556763
  0
LINE
  5
652
100
AcDbEntity
  8
0
100
AcDbLine
 62
7
  6
CONTINUOUS
 10
2655.358828586
 20
1059.4680556763
 11
2662.358828586
 21
1059.4680556763
  0
LINE
  5
653
100
AcDbEntity
  8
0
100
AcDbLine
 62
7
  6
CONTINUOUS
 10
2670.358828586
 20
1059.4680556763
 11
2967.5853258941
 21
1059.4680556763
  0
LINE
  5
654
100
AcDbEntity
  8
AXIS
100
AcDbLine
 62
7
  6
CONTINUOUS
 10
2967.5853258941
 20
1059.4680556763
 11
2970.358828586
 21
1059.4680556763
  0
LINE
  5
655
100
AcDbEntity
  8
AXIS
100
AcDbLine
 62
7
  6
CONTINUOUS
 10
2976.358828586
 20
1059.4680556763
 11
2979.1323312779
 21
1059.4680556763
  0
LINE
  5
656
100
AcDbEntity
  8
0
100
AcDbLine
 62
7
  6
CONTINUOUS
 10
2979.1323312779
 20
1059.4680556763
 11
3349.358828586
 21
1059.4680556763
  0
LINE
  5
657
100
AcDbEntity
  8
0
100
AcDbLine
 62
2
  6
CONTINUOUS
 10
3349.358828586
 20
1059.4680556763
 11
3352.358828586
 21
1059.4680556763
  0
LINE
  5
658
100
AcDbEntity
  8
0
100
AcDbLine
 62
7
  6
CONTINUOUS
 10
3357.358828586
 20
1059.4680556763
 11
3364.358828586
 21
1059.4680556763
  0
LINE
  5
659
100
AcDbEntity
  8
0
100
AcDbLine
 62
2
  6
CONTINUOUS
 10
3364.358828586
 20
1059.4680556763
 11
3367.358828586
 21
1059.4680556763
  0
LINE
  5
65A
100
AcDbEntity
  8
AXIS
100
AcDbLine
 62
7
  6
CONTINUOUS
 10
2977.358828586
 20
1060.9680556763
 11
2976.358828586
 21
1060.9680556763
  0
LINE
  5
65B
100
AcDbEntity
  8
AXIS
100
AcDbLine
 62
7
  6
CONTINUOUS
 10
2970.358828586
 20
1060.9680556763
 11
2969.358828586
 21
1060.9680556763
  0
LWPOLYLINE
  5
65C
100
AcDbEntity
  8
000-SPOJ_MAT
100
AcDbPolyline
 62
7
  6
CONTINUOUS
 90
6
 70
0
 10
2951.6060518362
 20
1114.0978732445
 10
2952.4194129046
 20
1113.7260540089
 10
2953.1839245943
 20
1113.4465306677
 10
2953.920241559
 20
1113.2496114341
 10
2954.6423538306
 20
1113.1316879159
 10
2955.358828586
 20
1113.092319745
  0
LWPOLYLINE
  5
65D
100
AcDbEntity
  8
000-SPOJ_MAT
100
AcDbPolyline
 62
7
  6
CONTINUOUS
 90
6
 70
0
 10
2959.1116053357
 20
1118.0382381081
 10
2958.298198758
 20
1118.4100760954
 10
2957.5336659059
 20
1118.6896018401
 10
2956.7973552446
 20
1118.8865129633
 10
2956.0752678727
 20
1119.0044273226
 10
2955.358828586
 20
1119.0437916076
  0
LWPOLYLINE
  5
65E
100
AcDbEntity
  8
000-SPOJ_MAT
100
AcDbPolyline
 62
7
  6
CONTINUOUS
 90
6
 70
0
 10
2951.6060518362
 20
1127.8978732445
 10
2952.4194584139
 20
1127.5260352572
 10
2953.183991266
 20
1127.2465095125
 10
2953.9203019273
 20
1127.0495983893
 10
2954.6423892992
 20
1126.93168403
 10
2955.358828586
 20
1126.892319745
  0
LWPOLYLINE
  5
65F
100
AcDbEntity
  8
000-SPOJ_MAT
100
AcDbPolyline
 62
7
  6
CONTINUOUS
 90
6
 70
0
 10
2987.6060518362
 20
1114.0978732445
 10
2988.4194129046
 20
1113.7260540089
 10
2989.1839245943
 20
1113.4465306677
 10
2989.920241559
 20
1113.2496114341
 10
2990.6423538306
 20
1113.1316879159
 10
2991.358828586
 20
1113.092319745
  0
LWPOLYLINE
  5
660
100
AcDbEntity
  8
000-SPOJ_MAT
100
AcDbPolyline
 62
7
  6
CONTINUOUS
 90
6
 70
0
 10
2959.1116053357
 20
1131.8382381081
 10
2958.2982442673
 20
1132.2100573437
 10
2957.5337325776
 20
1132.4895806849
 10
2956.7974156129
 20
1132.6864999185
 10
2956.0753033413
 20
1132.8044234366
 10
2955.358828586
 20
1132.8437916076
  0
LWPOLYLINE
  5
661
100
AcDbEntity
  8
000-SPOJ_MAT
100
AcDbPolyline
 62
7
  6
CONTINUOUS
 90
6
 70
0
 10
2995.1116053357
 20
1118.0382381081
 10
2994.298198758
 20
1118.4100760954
 10
2993.5336659059
 20
1118.6896018401
 10
2992.7973552446
 20
1118.8865129633
 10
2992.0752678727
 20
1119.0044273226
 10
2991.358828586
 20
1119.0437916076
  0
LWPOLYLINE
  5
662
100
AcDbEntity
  8
000-SPOJ_MAT
100
AcDbPolyline
 62
7
  6
CONTINUOUS
 90
6
 70
0
 10
2987.6060518362
 20
1127.8978732445
 10
2988.4194584139
 20
1127.5260352572
 10
2989.183991266
 20
1127.2465095125
 10
2989.9203019273
 20
1127.0495983893
 10
2990.6423892992
 20
1126.93168403
 10
2991.358828586
 20
1126.892319745
  0
LWPOLYLINE
  5
663
100
AcDbEntity
  8
000-SPOJ_MAT
100
AcDbPolyline
 62
7
  6
CONTINUOUS
 90
6
 70
0
 10
2995.1116053357
 20
1131.8382381081
 10
2994.2982442673
 20
1132.2100573437
 10
2993.5337325776
 20
1132.4895806849
 10
2992.7974156129
 20
1132.6864999185
 10
2992.0753033413
 20
1132.8044234366
 10
2991.358828586
 20
1132.8437916076
  0
LWPOLYLINE
  5
664
100
AcDbEntity
  8
0
100
AcDbPolyline
 62
9
  6
CONTINUOUS
 90
5
 70
0
 10
2986.9592299212
 20
1169.9390847597
 10
2987.1634916922
 20
1169.8325551183
 10
2987.3255947515
 20
1169.6666313117
 10
2987.4296713221
 20
1169.4575551183
 10
2987.4655336643
 20
1169.2257923725
  0
LINE
  5
665
100
AcDbEntity
  8
000-SPOJ_MAT
100
AcDbLine
 62
7
  6
CONTINUOUS
 10
2983.358828586
 20
1128.2779849994
 11
2983.8532750865
 21
1128.0172325139
  0
LWPOLYLINE
  5
666
100
AcDbEntity
  8
000-SPOJ_MAT
100
AcDbPolyline
 62
7
  6
CONTINUOUS
 90
7
 70
0
 10
3000.358828586
 20
1133.0581263532
 10
2999.4289223186
 20
1133.5485239324
 10
2998.5604645867
 20
1133.9140617064
 10
2997.7279703409
 20
1134.1698922401
 10
2996.9146230072
 20
1134.3223067229
 10
2996.1091586913
 20
1134.3730809209
 10
2995.358828586
 20
1134.3258598204
  0
LINE
  5
667
100
AcDbEntity
  8
0
100
AcDbLine
 62
7
  6
CONTINUOUS
 10
3367.358828586
 20
1116.4680556763
 11
3364.358828586
 21
1119.4680556763
  0
LWPOLYLINE
  5
668
100
AcDbEntity
  8
0
100
AcDbPolyline
 62
9
  6
CONTINUOUS
 90
5
 70
0
 10
3020.858828586
 20
1142.0856497403
 10
3020.5718160117
 20
1142.029874016
 10
3020.3284985001
 20
1141.8710381915
 10
3020.1659189366
 20
1141.6333235813
 10
3020.108828586
 20
1141.3529200798
  0
LINE
  5
669
100
AcDbEntity
  8
0
100
AcDbLine
 62
9
  6
CONTINUOUS
 10
2976.9630751968
 20
1169.9757923725
 11
2976.858828586
 21
1169.9588921684
  0
LWPOLYLINE
  5
66A
100
AcDbEntity
  8
000-SPOJ_MAT
100
AcDbPolyline
 62
7
  6
CONTINUOUS
 90
6
 70
0
 10
2987.358828586
 20
1134.357342655
 10
2986.8030357307
 20
1134.3223069196
 10
2985.989692085
 20
1134.1698935433
 10
2985.1571962738
 20
1133.9140630522
 10
2984.2887341378
 20
1133.5485235927
 10
2983.358828586
 20
1133.0581263532
  0
LWPOLYLINE
  5
66B
100
AcDbEntity
  8
000-SPOJ_MAT
100
AcDbPolyline
 62
7
  6
CONTINUOUS
 90
6
 70
0
 10
2991.358828586
 20
1113.092319745
 10
2992.0795568164
 20
1113.1321553073
 10
2992.8048340329
 20
1113.2512184342
 10
2993.5422109216
 20
1113.4492256379
 10
2994.3046929399
 20
1113.7287135677
 10
2995.1116053357
 20
1114.0978732445
  0
LWPOLYLINE
  5
66C
100
AcDbEntity
  8
000-SPOJ_MAT
100
AcDbPolyline
 62
7
  6
CONTINUOUS
 90
6
 70
0
 10
2955.358828586
 20
1113.092319745
 10
2956.0795568164
 20
1113.1321553073
 10
2956.8048340329
 20
1113.2512184342
 10
2957.5422109216
 20
1113.4492256379
 10
2958.3046929399
 20
1113.7287135677
 10
2959.1116053357
 20
1114.0978732445
  0
LWPOLYLINE
  5
66D
100
AcDbEntity
  8
000-SPOJ_MAT
100
AcDbPolyline
 62
7
  6
CONTINUOUS
 90
6
 70
0
 10
2991.358828586
 20
1119.0437916076
 10
2990.6380673108
 20
1119.0039524035
 10
2989.9127669244
 20
1118.884880711
 10
2989.175384129
 20
1118.6868659338
 10
2988.4129224959
 20
1118.4073805564
 10
2987.6060518362
 20
1118.0382381081
  0
LWPOLYLINE
  5
66E
100
AcDbEntity
  8
000-SPOJ_MAT
100
AcDbPolyline
 62
7
  6
CONTINUOUS
 90
6
 70
0
 10
2955.358828586
 20
1119.0437916076
 10
2954.6380673108
 20
1119.0039524035
 10
2953.9127669244
 20
1118.884880711
 10
2953.175384129
 20
1118.6868659338
 10
2952.4129224959
 20
1118.4073805564
 10
2951.6060518362
 20
1118.0382381081
  0
LWPOLYLINE
  5
66F
100
AcDbEntity
  8
000-SPOJ_MAT
100
AcDbPolyline
 62
7
  6
CONTINUOUS
 90
6
 70
0
 10
2991.358828586
 20
1126.892319745
 10
2992.0795898612
 20
1126.9321589491
 10
2992.8048902475
 20
1127.0512306416
 10
2993.5422730429
 20
1127.2492454188
 10
2994.304734676
 20
1127.5287307962
 10
2995.1116053357
 20
1127.8978732445
  0
LWPOLYLINE
  5
670
100
AcDbEntity
  8
000-SPOJ_MAT
100
AcDbPolyline
 62
7
  6
CONTINUOUS
 90
6
 70
0
 10
2955.358828586
 20
1126.892319745
 10
2956.0795898612
 20
1126.9321589491
 10
2956.8048902475
 20
1127.0512306416
 10
2957.5422730429
 20
1127.2492454188
 10
2958.304734676
 20
1127.5287307962
 10
2959.1116053357
 20
1127.8978732445
  0
LWPOLYLINE
  5
671
100
AcDbEntity
  8
000-SPOJ_MAT
100
AcDbPolyline
 62
7
  6
CONTINUOUS
 90
6
 70
0
 10
2991.358828586
 20
1132.8437916076
 10
2990.6381003555
 20
1132.8039560453
 10
2989.912823139
 20
1132.6848929184
 10
2989.1754462503
 20
1132.4868857147
 10
2988.412964232
 20
1132.2073977849
 10
2987.6060518362
 20
1131.8382381081
  0
LWPOLYLINE
  5
672
100
AcDbEntity
  8
000-SPOJ_MAT
100
AcDbPolyline
 62
7
  6
CONTINUOUS
 90
6
 70
0
 10
2955.358828586
 20
1132.8437916076
 10
2954.6381003555
 20
1132.8039560453
 10
2953.912823139
 20
1132.6848929184
 10
2953.1754462503
 20
1132.4868857147
 10
2952.412964232
 20
1132.2073977849
 10
2951.6060518362
 20
1131.8382381081
  0
LINE
  5
673
100
AcDbEntity
  8
0
100
AcDbLine
 62
9
  6
CONTINUOUS
 10
2970.358828586
 20
1061.9680556763
 11
2976.358828586
 21
1061.9680556763
  0
LINE
  5
674
100
AcDbEntity
  8
0
100
AcDbLine
 62
9
  6
CONTINUOUS
 10
2959.358828586
 20
1083.4680556763
 11
2951.358828586
 21
1083.4680556763
  0
LINE
  5
675
100
AcDbEntity
  8
0
100
AcDbLine
 62
9
  6
CONTINUOUS
 10
2987.358828586
 20
1083.4680556763
 11
2995.358828586
 21
1083.4680556763
  0
LINE
  5
676
100
AcDbEntity
  8
0
100
AcDbLine
 62
7
  6
CONTINUOUS
 10
2999.858828586
 20
1088.6680556763
 11
2995.358828586
 21
1088.6680556763
  0
LINE
  5
677
100
AcDbEntity
  8
0
100
AcDbLine
 62
7
  6
CONTINUOUS
 10
2987.358828586
 20
1088.6680556763
 11
2983.858828586
 21
1088.6680556763
  0
LINE
  5
678
100
AcDbEntity
  8
0
100
AcDbLine
 62
7
  6
CONTINUOUS
 10
2962.858828586
 20
1088.6680556763
 11
2959.358828586
 21
1088.6680556763
  0
LINE
  5
679
100
AcDbEntity
  8
0
100
AcDbLine
 62
7
  6
CONTINUOUS
 10
2951.358828586
 20
1088.6680556763
 11
2946.858828586
 21
1088.6680556763
  0
LINE
  5
67A
100
AcDbEntity
  8
AXIS
100
AcDbLine
 62
7
  6
CONTINUOUS
 10
3023.358828586
 20
1098.6680556763
 11
2995.358828586
 21
1098.6680556763
  0
LINE
  5
67B
100
AcDbEntity
  8
AXIS
100
AcDbLine
 62
7
  6
CONTINUOUS
 10
2987.358828586
 20
1098.6680556763
 11
2959.358828586
 21
1098.6680556763
  0
LINE
  5
67C
100
AcDbEntity
  8
AXIS
100
AcDbLine
 62
7
  6
CONTINUOUS
 10
2951.358828586
 20
1098.6680556763
 11
2923.358828586
 21
1098.6680556763
  0
LINE
  5
67D
100
AcDbEntity
  8
AXIS
100
AcDbLine
 62
7
  6
CONTINUOUS
 10
3372.358828586
 20
1099.4680556763
 11
3367.358828586
 21
1099.4680556763
  0
LINE
  5
67E
100
AcDbEntity
  8
0
100
AcDbLine
 62
2
  6
CONTINUOUS
 10
2670.358828586
 20
1099.4680556763
 11
2667.358828586
 21
1099.4680556763
  0
LINE
  5
67F
100
AcDbEntity
  8
AXIS
100
AcDbLine
 62
7
  6
CONTINUOUS
 10
2662.358828586
 20
1099.4680556763
 11
2667.358828586
 21
1099.4680556763
  0
LINE
  5
680
100
AcDbEntity
  8
0
100
AcDbLine
 62
2
  6
CONTINUOUS
 10
3349.358828586
 20
1099.4680556763
 11
3352.358828586
 21
1099.4680556763
  0
LINE
  5
681
100
AcDbEntity
  8
AXIS
100
AcDbLine
 62
7
  6
CONTINUOUS
 10
3352.358828586
 20
1099.4680556763
 11
3357.358828586
 21
1099.4680556763
  0
LINE
  5
682
100
AcDbEntity
  8
0
100
AcDbLine
 62
7
  6
CONTINUOUS
 10
3003.358828586
 20
1109.4680556763
 11
2995.358828586
 21
1109.4680556763
  0
LINE
  5
683
100
AcDbEntity
  8
0
100
AcDbLine
 62
7
  6
CONTINUOUS
 10
2987.358828586
 20
1109.4680556763
 11
2959.358828586
 21
1109.4680556763
  0
LINE
  5
684
100
AcDbEntity
  8
0
100
AcDbLine
 62
7
  6
CONTINUOUS
 10
2951.358828586
 20
1109.4680556763
 11
2943.358828586
 21
1109.4680556763
  0
LINE
  5
685
100
AcDbEntity
  8
AXIS
100
AcDbLine
 62
7
  6
CONTINUOUS
 10
3023.358828586
 20
1110.6680556763
 11
3003.358828586
 21
1110.6680556763
  0
LINE
  5
686
100
AcDbEntity
  8
AXIS
100
AcDbLine
 62
7
  6
CONTINUOUS
 10
2943.358828586
 20
1110.6680556763
 11
2923.358828586
 21
1110.6680556763
  0
LINE
  5
687
100
AcDbEntity
  8
AXIS
100
AcDbLine
 62
7
  6
CONTINUOUS
 10
3372.358828586
 20
1112.4680556763
 11
3367.358828586
 21
1112.4680556763
  0
LINE
  5
688
100
AcDbEntity
  8
0
100
AcDbLine
 62
7
  6
CONTINUOUS
 10
2652.358828586
 20
1112.4680556763
 11
2923.358828586
 21
1112.4680556763
  0
LINE
  5
689
100
AcDbEntity
  8
0
100
AcDbLine
 62
7
  6
CONTINUOUS
 10
3023.358828586
 20
1112.4680556763
 11
3367.358828586
 21
1112.4680556763
  0
LINE
  5
68A
100
AcDbEntity
  8
000-SPOJ_MAT
100
AcDbLine
 62
7
  6
CONTINUOUS
 10
2997.4345645172
 20
1112.6680556763
 11
2985.2830926547
 21
1112.6680556763
  0
LINE
  5
68B
100
AcDbEntity
  8
000-SPOJ_MAT
100
AcDbLine
 62
7
  6
CONTINUOUS
 10
2961.4345645172
 20
1112.6680556763
 11
2949.2830926547
 21
1112.6680556763
  0
LINE
  5
68C
100
AcDbEntity
  8
AXIS
100
AcDbLine
 62
7
  6
CONTINUOUS
 10
2923.358828586
 20
1118.6680556763
 11
2943.358828586
 21
1118.6680556763
  0
LINE
  5
68D
100
AcDbEntity
  8
AXIS
100
AcDbLine
 62
7
  6
CONTINUOUS
 10
3003.358828586
 20
1118.6680556763
 11
3023.358828586
 21
1118.6680556763
  0
LINE
  5
68E
100
AcDbEntity
  8
0
100
AcDbLine
 62
2
  6
CONTINUOUS
 10
3370.1872557107
 20
1119.296482801
 11
3364.5304014612
 21
1119.296482801
  0
LINE
  5
68F
100
AcDbEntity
  8
0
100
AcDbLine
 62
2
  6
CONTINUOUS
 10
2655.1872557107
 20
1119.296482801
 11
2649.5304014612
 21
1119.296482801
  0
LINE
  5
690
100
AcDbEntity
  8
0
100
AcDbLine
 62
7
  6
CONTINUOUS
 10
3372.358828586
 20
1119.4680556763
 11
3370.358828586
 21
1119.4680556763
  0
LINE
  5
691
100
AcDbEntity
  8
0
100
AcDbLine
 62
7
  6
CONTINUOUS
 10
2649.358828586
 20
1119.4680556763
 11
2647.358828586
 21
1119.4680556763
  0
LINE
  5
692
100
AcDbEntity
  8
0
100
AcDbLine
 62
7
  6
CONTINUOUS
 10
2655.358828586
 20
1119.4680556763
 11
3364.358828586
 21
1119.4680556763
  0
LINE
  5
693
100
AcDbEntity
  8
AXIS
100
AcDbLine
 62
7
  6
CONTINUOUS
 10
2823.358828586
 20
1119.9680556763
 11
2893.358828586
 21
1119.9680556763
  0
LINE
  5
694
100
AcDbEntity
  8
0
100
AcDbLine
 62
6
  6
CONTINUOUS
 10
3017.858828586
 20
1120.1980556763
 11
3008.858828586
 21
1120.1980556763
  0
LINE
  5
695
100
AcDbEntity
  8
0
100
AcDbLine
 62
6
  6
CONTINUOUS
 10
3018.3448201414
 20
1120.9280556763
 11
3008.3728370305
 21
1120.9280556763
  0
LINE
  5
696
100
AcDbEntity
  8
ROUND
100
AcDbLine
 62
7
  6
CONTINUOUS
 10
2828.3184262844
 20
1121.5680556763
 11
2828.3992449567
 21
1121.5680556763
  0
LINE
  5
697
100
AcDbEntity
  8
ROUND
100
AcDbLine
 62
7
  6
CONTINUOUS
 10
2888.3184262844
 20
1121.5680556763
 11
2888.3992449567
 21
1121.5680556763
  0
LINE
  5
698
100
AcDbEntity
  8
0
100
AcDbLine
 62
6
  6
CONTINUOUS
 10
3019.008828586
 20
1122.7530556763
 11
3007.708828586
 21
1122.7530556763
  0
LINE
  5
699
100
AcDbEntity
  8
0
100
AcDbLine
 62
7
  6
CONTINUOUS
 10
2943.358828586
 20
1126.4680556763
 11
2969.858828586
 21
1126.4680556763
  0
LINE
  5
69A
100
AcDbEntity
  8
0
100
AcDbLine
 62
7
  6
CONTINUOUS
 10
2976.858828586
 20
1126.4680556763
 11
3003.358828586
 21
1126.4680556763
  0
LINE
  5
69B
100
AcDbEntity
  8
0
100
AcDbLine
 62
9
  6
CONTINUOUS
 10
3007.708828586
 20
1131.8930556763
 11
3019.008828586
 21
1131.8930556763
  0
LINE
  5
69C
100
AcDbEntity
  8
000-SPOJ_MAT
100
AcDbLine
 62
7
  6
CONTINUOUS
 10
2949.2830926547
 20
1133.2680556763
 11
2961.4345645172
 21
1133.2680556763
  0
LINE
  5
69D
100
AcDbEntity
  8
000-SPOJ_MAT
100
AcDbLine
 62
7
  6
CONTINUOUS
 10
2985.2830926547
 20
1133.2680556763
 11
2997.4345645172
 21
1133.2680556763
  0
LINE
  5
69E
100
AcDbEntity
  8
0
100
AcDbLine
 62
6
  6
CONTINUOUS
 10
3023.3588205069
 20
1134.0680556763
 11
3021.608828586
 21
1134.0680556763
  0
LINE
  5
69F
100
AcDbEntity
  8
0
100
AcDbLine
 62
6
  6
CONTINUOUS
 10
3020.108828586
 20
1134.0680556763
 11
3003.358836665
 21
1134.0680556763
  0
LINE
  5
6A0
100
AcDbEntity
  8
000-SPOJ_MAT
100
AcDbLine
 62
7
  6
CONTINUOUS
 10
2946.8538033328
 20
1134.8680556763
 11
2951.358828586
 21
1134.8680556763
  0
LINE
  5
6A1
100
AcDbEntity
  8
000-SPOJ_MAT
100
AcDbLine
 62
7
  6
CONTINUOUS
 10
2959.358828586
 20
1134.8680556763
 11
2962.8638538391
 21
1134.8680556763
  0
LINE
  5
6A2
100
AcDbEntity
  8
000-SPOJ_MAT
100
AcDbLine
 62
7
  6
CONTINUOUS
 10
2983.8538033328
 20
1134.8680556763
 11
2987.358828586
 21
1134.8680556763
  0
LINE
  5
6A3
100
AcDbEntity
  8
000-SPOJ_MAT
100
AcDbLine
 62
7
  6
CONTINUOUS
 10
2995.358828586
 20
1134.8680556763
 11
2999.8638538391
 21
1134.8680556763
  0
LINE
  5
6A4
100
AcDbEntity
  8
000-SPOJ_MAT
100
AcDbLine
 62
9
  6
CONTINUOUS
 10
2999.8638538391
 20
1135.6680556763
 11
2995.3588285834
 21
1135.6680556763
  0
LINE
  5
6A5
100
AcDbEntity
  8
000-SPOJ_MAT
100
AcDbLine
 62
9
  6
CONTINUOUS
 10
2987.3588285886
 20
1135.6680556763
 11
2983.8538033328
 21
1135.6680556763
  0
LINE
  5
6A6
100
AcDbEntity
  8
000-SPOJ_MAT
100
AcDbLine
 62
9
  6
CONTINUOUS
 10
2962.8638538391
 20
1135.6680556763
 11
2959.358828586
 21
1135.6680556763
  0
LINE
  5
6A7
100
AcDbEntity
  8
000-SPOJ_MAT
100
AcDbLine
 62
9
  6
CONTINUOUS
 10
2951.358828586
 20
1135.6680556763
 11
2946.8538033328
 21
1135.6680556763
  0
LINE
  5
6A8
100
AcDbEntity
  8
0
100
AcDbLine
 62
7
  6
CONTINUOUS
 10
2951.358828586
 20
1135.6680556763
 11
2959.358828586
 21
1135.6680556763
  0
LINE
  5
6A9
100
AcDbEntity
  8
0
100
AcDbLine
 62
7
  6
CONTINUOUS
 10
2987.358828586
 20
1135.6680556763
 11
2995.358828586
 21
1135.6680556763
  0
LINE
  5
6AA
100
AcDbEntity
  8
0
100
AcDbLine
 62
6
  6
CONTINUOUS
 10
3003.358828586
 20
1136.0680556763
 11
3018.8221823621
 21
1136.0680556763
  0
LINE
  5
6AB
100
AcDbEntity
  8
0
100
AcDbLine
 62
6
  6
CONTINUOUS
 10
3022.8954748098
 20
1136.0680556763
 11
3023.358828586
 21
1136.0680556763
  0
LINE
  5
6AC
100
AcDbEntity
  8
000-SPOJ_MAT
100
AcDbLine
 62
7
  6
CONTINUOUS
 10
2999.0637693848
 20
1136.4680556763
 11
2994.5588285839
 21
1136.4680556763
  0
LINE
  5
6AD
100
AcDbEntity
  8
000-SPOJ_MAT
100
AcDbLine
 62
7
  6
CONTINUOUS
 10
2988.158828588
 20
1136.4680556763
 11
2984.6538877871
 21
1136.4680556763
  0
LINE
  5
6AE
100
AcDbEntity
  8
000-SPOJ_MAT
100
AcDbLine
 62
7
  6
CONTINUOUS
 10
2962.0637693848
 20
1136.4680556763
 11
2958.558828586
 21
1136.4680556763
  0
LINE
  5
6AF
100
AcDbEntity
  8
000-SPOJ_MAT
100
AcDbLine
 62
7
  6
CONTINUOUS
 10
2952.158828586
 20
1136.4680556763
 11
2947.6538877871
 21
1136.4680556763
  0
LINE
  5
6B0
100
AcDbEntity
  8
0
100
AcDbLine
 62
7
  6
CONTINUOUS
 10
2952.158828586
 20
1136.4680556763
 11
2958.558828586
 21
1136.4680556763
  0
LINE
  5
6B1
100
AcDbEntity
  8
0
100
AcDbLine
 62
7
  6
CONTINUOUS
 10
2988.158828586
 20
1136.4680556763
 11
2994.558828586
 21
1136.4680556763
  0
LINE
  5
6B2
100
AcDbEntity
  8
0
100
AcDbLine
 62
2
  6
CONTINUOUS
 10
3013.358828586
 20
1137.0680556763
 11
3004.436928586
 21
1137.0680556763
  0
LINE
  5
6B3
100
AcDbEntity
  8
0
100
AcDbLine
 62
6
  6
CONTINUOUS
 10
3013.358828586
 20
1137.0680556763
 11
3017.813487872
 21
1137.0680556763
  0
LINE
  5
6B4
100
AcDbEntity
  8
0
100
AcDbLine
 62
7
  6
CONTINUOUS
 10
2996.858828586
 20
1138.6680556763
 11
2986.858828586
 21
1138.6680556763
  0
LINE
  5
6B5
100
AcDbEntity
  8
0
100
AcDbLine
 62
7
  6
CONTINUOUS
 10
2959.858828586
 20
1138.6680556763
 11
2949.858828586
 21
1138.6680556763
  0
LINE
  5
6B6
100
AcDbEntity
  8
0
100
AcDbLine
 62
6
  6
CONTINUOUS
 10
3010.658828586
 20
1139.9580556763
 11
3014.3699824096
 21
1139.9580556763
  0
LINE
  5
6B7
100
AcDbEntity
  8
0
100
AcDbLine
 62
6
  6
CONTINUOUS
 10
3010.8688361365
 20
1140.1680556763
 11
3014.1198940948
 21
1140.1680556763
  0
LINE
  5
6B8
100
AcDbEntity
  8
0
100
AcDbLine
 62
7
  6
CONTINUOUS
 10
2996.858828586
 20
1140.6680556763
 11
2986.858828586
 21
1140.6680556763
  0
LINE
  5
6B9
100
AcDbEntity
  8
0
100
AcDbLine
 62
7
  6
CONTINUOUS
 10
2959.858828586
 20
1140.6680556763
 11
2949.858828586
 21
1140.6680556763
  0
LINE
  5
6BA
100
AcDbEntity
  8
0
100
AcDbLine
 62
7
  6
CONTINUOUS
 10
2976.858828586
 20
1146.7180556763
 11
2978.358828586
 21
1146.7180556763
  0
LINE
  5
6BB
100
AcDbEntity
  8
0
100
AcDbLine
 62
7
  6
CONTINUOUS
 10
2978.958828586
 20
1149.1680556763
 11
2978.358828586
 21
1149.1680556763
  0
LINE
  5
6BC
100
AcDbEntity
  8
0
100
AcDbLine
 62
9
  6
CONTINUOUS
 10
2976.858828586
 20
1152.9680556763
 11
2978.358828586
 21
1152.9680556763
  0
LINE
  5
6BD
100
AcDbEntity
  8
0
100
AcDbLine
 62
7
  6
CONTINUOUS
 10
2978.958828586
 20
1156.7680556763
 11
2978.358828586
 21
1156.7680556763
  0
LINE
  5
6BE
100
AcDbEntity
  8
0
100
AcDbLine
 62
7
  6
CONTINUOUS
 10
2976.858828586
 20
1164.4680556763
 11
2969.858828586
 21
1164.4680556763
  0
LINE
  5
6BF
100
AcDbEntity
  8
0
100
AcDbLine
 62
7
  6
CONTINUOUS
 10
2976.9630751968
 20
1168.4757923725
 11
2979.8872027526
 21
1168.4757923725
  0
LINE
  5
6C0
100
AcDbEntity
  8
0
100
AcDbLine
 62
7
  6
CONTINUOUS
 10
2985.0740814222
 20
1168.4757923725
 11
2986.8477710856
 21
1168.4757923725
  0
LINE
  5
6C1
100
AcDbEntity
  8
0
100
AcDbLine
 62
7
  6
CONTINUOUS
 10
2976.9630751968
 20
1169.9757923725
 11
2979.8872027526
 21
1169.9757923725
  0
LINE
  5
6C2
100
AcDbEntity
  8
0
100
AcDbLine
 62
7
  6
CONTINUOUS
 10
2983.8086764481
 20
1169.9757923725
 11
2986.8477710856
 21
1169.9757923725
  0
LINE
  5
6C3
100
AcDbEntity
  8
0
100
AcDbLine
 62
7
  6
CONTINUOUS
 10
2976.858828586
 20
1179.4680556763
 11
2969.858828586
 21
1179.4680556763
  0
LWPOLYLINE
  5
6C4
100
AcDbEntity
  8
000-SPOJ_MAT
100
AcDbPolyline
 62
7
  6
CONTINUOUS
 90
7
 70
0
 10
2951.358828586
 20
1134.3258603959
 10
2950.6084941207
 20
1134.3730809207
 10
2949.8030357307
 20
1134.3223069196
 10
2948.989692085
 20
1134.1698935433
 10
2948.1571962738
 20
1133.9140630522
 10
2947.2887341378
 20
1133.5485235927
 10
2946.358828586
 20
1133.0581263532
  0
LINE
  5
6C5
100
AcDbEntity
  8
0
100
AcDbLine
 62
9
  6
CONTINUOUS
 10
2976.858828586
 20
1168.4926925766
 11
2976.9630751968
 21
1168.4757923725
  0
LINE
  5
6C6
100
AcDbEntity
  8
0
100
AcDbLine
 62
9
  6
CONTINUOUS
 10
2986.7328040038
 20
1169.9757923725
 11
2986.9592299212
 21
1169.9390847597
  0
LWPOLYLINE
  5
6C7
100
AcDbEntity
  8
0
100
AcDbPolyline
 62
9
  6
CONTINUOUS
 90
5
 70
0
 10
3020.858828586
 20
1130.8504616123
 10
3020.5718160117
 20
1130.9062373366
 10
3020.3284985001
 20
1131.0650731611
 10
3020.1659189366
 20
1131.3027877713
 10
3020.108828586
 20
1131.5831912728
  0
LINE
  5
6C8
100
AcDbEntity
  8
0
100
AcDbLine
 62
7
  6
CONTINUOUS
 10
2982.1900030019
 20
1175.068714503
 11
2980.7411142625
 21
1175.4569430706
  0
ARC
  5
6C9
100
AcDbEntity
  8
ROUND
100
AcDbCircle
 62
7
  6
CONTINUOUS
 10
1316.3828619588
 20
934.4680556763
 40
4.5
100
AcDbArc
 50
180.0728625421
 51
266.2650486627
  0
ARC
  5
6CA
100
AcDbEntity
  8
0
100
AcDbCircle
 62
7
  6
CONTINUOUS
 10
1316.3828619588
 20
934.4680556763
 40
3.5
100
AcDbArc
 50
179.9120344998
 51
279.4952646276
  0
ARC
  5
6CB
100
AcDbEntity
  8
0
100
AcDbCircle
 62
7
  6
CONTINUOUS
 10
1315.3828619588
 20
830.4680556763
 40
1.4999402206
100
AcDbArc
 50
90.0
 51
270.0
  0
ARC
  5
6CC
100
AcDbEntity
  8
ROUND
100
AcDbCircle
 62
7
  6
CONTINUOUS
 10
1316.3828619588
 20
929.4680556763
 40
1.0
100
AcDbArc
 50
144.9003678048
 51
180.0
  0
ARC
  5
6CD
100
AcDbEntity
  8
0
100
AcDbCircle
 62
7
  6
CONTINUOUS
 10
1316.3828619588
 20
1024.4680556763
 40
6.5
100
AcDbArc
 50
140.3137699997
 51
181.2739739769
  0
ARC
  5
6CE
100
AcDbEntity
  8
0
100
AcDbCircle
 62
7
  6
CONTINUOUS
 10
1316.3828619588
 20
1024.4680556763
 40
5.5
100
AcDbArc
 50
155.3964635325
 51
181.2739739769
  0
ARC
  5
6CF
100
AcDbEntity
  8
0
100
AcDbCircle
 62
7
  6
CONTINUOUS
 10
1312.4953619588
 20
1152.9680556763
 40
5.3125
100
AcDbArc
 50
195.7651091622
 51
225.6673083558
  0
ARC
  5
6D0
100
AcDbEntity
  8
0
100
AcDbCircle
 62
7
  6
CONTINUOUS
 10
1312.4953619588
 20
1152.9680556763
 40
5.3125
100
AcDbArc
 50
134.3326916442
 51
164.2348908378
  0
ARC
  5
6D1
100
AcDbEntity
  8
0
100
AcDbCircle
 62
7
  6
CONTINUOUS
 10
1312.4953619588
 20
1152.9680556763
 40
5.1633473881
100
AcDbArc
 50
171.9653867462
 51
188.0346132538
  0
ARC
  5
6D2
100
AcDbEntity
  8
0
100
AcDbCircle
 62
7
  6
CONTINUOUS
 10
1314.3828619588
 20
1020.4680556763
 40
3.0
100
AcDbArc
 50
180.0
 51
311.8695256669
  0
ARC
  5
6D3
100
AcDbEntity
  8
0
100
AcDbCircle
 62
6
  6
CONTINUOUS
 10
1282.2078619588
 20
1131.8930556763
 40
2.175
100
AcDbArc
 50
90.0
 51
180.0
  0
ARC
  5
6D4
100
AcDbEntity
  8
0
100
AcDbCircle
 62
6
  6
CONTINUOUS
 10
1266.5578619588
 20
1131.8930556763
 40
2.175
100
AcDbArc
 50
0.0
 51
52.4686519758
  0
ARC
  5
6D5
100
AcDbEntity
  8
0
100
AcDbCircle
 62
7
  6
CONTINUOUS
 10
1266.8828619588
 20
1136.4680556763
 40
2.1
100
AcDbArc
 50
16.6647232341
 51
68.9203112247
  0
ARC
  5
6D6
100
AcDbEntity
  8
0
100
AcDbCircle
 62
7
  6
CONTINUOUS
 10
1266.8828619588
 20
1136.4680556763
 40
2.1
100
AcDbArc
 50
111.0796887752
 51
180.7218322917
  0
ARC
  5
6D7
100
AcDbEntity
  8
0
100
AcDbCircle
 62
7
  6
CONTINUOUS
 10
1305.8937509444
 20
1169.2257923725
 40
2.1
100
AcDbArc
 50
70.4735498193
 51
159.067684636
  0
ARC
  5
6D8
100
AcDbEntity
  8
0
100
AcDbCircle
 62
7
  6
CONTINUOUS
 10
1305.8937509444
 20
1169.2257923725
 40
2.1
100
AcDbArc
 50
200.932315364
 51
319.5288837442
  0
ARC
  5
6D9
100
AcDbEntity
  8
0
100
AcDbCircle
 62
7
  6
CONTINUOUS
 10
1340.7773088549
 20
1036.2913675031
 40
2.0
100
AcDbArc
 50
90.0
 51
108.0
  0
ARC
  5
6DA
100
AcDbEntity
  8
0
100
AcDbCircle
 62
6
  6
CONTINUOUS
 10
1276.8828619588
 20
1078.6020302725
 40
1.0
100
AcDbArc
 50
299.9999999999
 51
60.0000234076
  0
ARC
  5
6DB
100
AcDbEntity
  8
0
100
AcDbCircle
 62
6
  6
CONTINUOUS
 10
1271.8828619588
 20
1078.6020302725
 40
1.0
100
AcDbArc
 50
119.9999765956
 51
240.0000000001
  0
ARC
  5
6DC
100
AcDbEntity
  8
000-SPOJ_MAT
100
AcDbCircle
 62
7
  6
CONTINUOUS
 10
1340.087887212
 20
1135.6680556763
 40
0.8
100
AcDbArc
 50
0.0
 51
90.0
  0
ARC
  5
6DD
100
AcDbEntity
  8
000-SPOJ_MAT
100
AcDbCircle
 62
7
  6
CONTINUOUS
 10
1325.6778367056
 20
1135.6680556763
 40
0.8
100
AcDbArc
 50
90.0
 51
180.0
  0
ARC
  5
6DE
100
AcDbEntity
  8
000-SPOJ_MAT
100
AcDbCircle
 62
7
  6
CONTINUOUS
 10
1303.087887212
 20
1135.6680556763
 40
0.8
100
AcDbArc
 50
0.0
 51
90.0
  0
ARC
  5
6DF
100
AcDbEntity
  8
000-SPOJ_MAT
100
AcDbCircle
 62
7
  6
CONTINUOUS
 10
1288.6778367056
 20
1135.6680556763
 40
0.8
100
AcDbArc
 50
90.0
 51
180.0
  0
ARC
  5
6E0
100
AcDbEntity
  8
0
100
AcDbCircle
 62
7
  6
CONTINUOUS
 10
1266.8828619588
 20
1141.4680556763
 40
0.75
100
AcDbArc
 50
0.0
 51
180.0
  0
ARC
  5
6E1
100
AcDbEntity
  8
0
100
AcDbCircle
 62
7
  6
CONTINUOUS
 10
1266.8828619588
 20
1131.4680556763
 40
0.75
100
AcDbArc
 50
180.0
 51
360.0
  0
ARC
  5
6E2
100
AcDbEntity
  8
0
100
AcDbCircle
 62
7
  6
CONTINUOUS
 10
1300.8937509444
 20
1169.2257923725
 40
0.75
100
AcDbArc
 50
90.0
 51
270.0
  0
ARC
  5
6E3
100
AcDbEntity
  8
ROUND
100
AcDbCircle
 62
7
  6
CONTINUOUS
 10
1414.3828619588
 20
929.4680556763
 40
1.0
100
AcDbArc
 50
0.0
 51
90.0
  0
ARC
  5
6E4
100
AcDbEntity
  8
ROUND
100
AcDbCircle
 62
7
  6
CONTINUOUS
 10
1379.8828619588
 20
1037.3892544705
 40
4.0
100
AcDbArc
 50
13.0418627669
 51
90.0
  0
ARC
  5
6E5
100
AcDbEntity
  8
ROUND
100
AcDbCircle
 62
7
  6
CONTINUOUS
 10
1378.8828619588
 20
1037.3892544705
 40
4.0
100
AcDbArc
 50
90.0
 51
166.9581372331
  0
ARC
  5
6E6
100
AcDbEntity
  8
0
100
AcDbCircle
 62
7
  6
CONTINUOUS
 10
1389.9884150627
 20
1036.2913675031
 40
2.0
100
AcDbArc
 50
72.0
 51
90.0
  0
ARC
  5
6E7
100
AcDbEntity
  8
ROUND
100
AcDbCircle
 62
7
  6
CONTINUOUS
 10
1399.342445588
 20
1119.5680656763
 40
1.99999
100
AcDbArc
 50
90.0
 51
168.4632748773
  0
ARC
  5
6E8
100
AcDbEntity
  8
ROUND
100
AcDbCircle
 62
7
  6
CONTINUOUS
 10
1399.4232783296
 20
1119.5680656763
 40
1.99999
100
AcDbArc
 50
11.5367251227
 51
90.0
  0
ARC
  5
6E9
100
AcDbEntity
  8
ROUND
100
AcDbCircle
 62
7
  6
CONTINUOUS
 10
1459.342445588
 20
1119.5680656763
 40
1.99999
100
AcDbArc
 50
90.0
 51
168.4632748773
  0
ARC
  5
6EA
100
AcDbEntity
  8
ROUND
100
AcDbCircle
 62
7
  6
CONTINUOUS
 10
1459.4232783296
 20
1119.5680656763
 40
1.99999
100
AcDbArc
 50
11.5367251227
 51
90.0
  0
ARC
  5
6EB
100
AcDbEntity
  8
ROUND
100
AcDbCircle
 62
7
  6
CONTINUOUS
 10
1379.5828619588
 20
1046.3900341921
 40
1.8
100
AcDbArc
 50
0.0
 51
90.0
  0
ARC
  5
6EC
100
AcDbEntity
  8
ROUND
100
AcDbCircle
 62
7
  6
CONTINUOUS
 10
1379.1828619588
 20
1046.3900341921
 40
1.8
100
AcDbArc
 50
90.0
 51
180.0
  0
ARC
  5
6ED
100
AcDbEntity
  8
0
100
AcDbCircle
 62
7
  6
CONTINUOUS
 10
1414.3828619588
 20
1030.4680556763
 40
1.5
100
AcDbArc
 50
270.0
 51
90.0
  0
CIRCLE
  5
6EE
100
AcDbEntity
  8
0
100
AcDbCircle
 62
7
  6
CONTINUOUS
 10
1329.3828619588
 20
1562.4175009731
 40
15.0
  0
CIRCLE
  5
6EF
100
AcDbEntity
  8
0
100
AcDbCircle
 62
7
  6
CONTINUOUS
 10
1299.3828619588
 20
1562.4175009731
 40
15.0
  0
ARC
  5
6F0
100
AcDbEntity
  8
000-SPOJ_MAT
100
AcDbCircle
 62
7
  6
CONTINUOUS
 10
1296.3828619588
 20
1359.4175009731
 40
6.0757359313
100
AcDbArc
 50
41.1917199315
 51
318.8082800685
  0
ARC
  5
6F1
100
AcDbEntity
  8
0
100
AcDbCircle
 62
7
  6
CONTINUOUS
 10
1296.3828619588
 20
1359.4175009731
 40
4.0
100
AcDbArc
 50
90.0
 51
270.0
  0
ARC
  5
6F2
100
AcDbEntity
  8
AXIS
100
AcDbCircle
 62
7
  6
CONTINUOUS
 10
1314.3828619588
 20
1369.9175009731
 40
3.05
100
AcDbArc
 50
65.9137569603
 51
189.8019035598
  0
ARC
  5
6F3
100
AcDbEntity
  8
0
100
AcDbCircle
 62
7
  6
CONTINUOUS
 10
1314.3828619588
 20
1348.9175009731
 40
3.0
100
AcDbArc
 50
180.0
 51
294.263677988
  0
ARC
  5
6F4
100
AcDbEntity
  8
0
100
AcDbCircle
 62
7
  6
CONTINUOUS
 10
1314.3828619588
 20
1369.9175009731
 40
3.0
100
AcDbArc
 50
65.736322012
 51
180.0
  0
CIRCLE
  5
6F5
100
AcDbEntity
  8
0
100
AcDbCircle
 62
7
  6
CONTINUOUS
 10
1295.8828619588
 20
1856.9175009731
 40
8.0
  0
CIRCLE
  5
6F6
100
AcDbEntity
  8
0
100
AcDbCircle
 62
7
  6
CONTINUOUS
 10
1295.8828619588
 20
1769.9175009731
 40
8.0
  0
ARC
  5
6F7
100
AcDbEntity
  8
AXIS
100
AcDbCircle
 62
7
  6
CONTINUOUS
 10
1274.3828619588
 20
1836.9175009731
 40
3.25
100
AcDbArc
 50
13.3856087959
 51
166.6143954976
  0
ARC
  5
6F8
100
AcDbEntity
  8
AXIS
100
AcDbCircle
 62
7
  6
CONTINUOUS
 10
1274.3828619588
 20
1836.9175009731
 40
3.25
100
AcDbArc
 50
193.385608796
 51
346.6143954976
  0
CIRCLE
  5
6F9
100
AcDbEntity
  8
AXIS
100
AcDbCircle
 62
7
  6
CONTINUOUS
 10
1248.3828619588
 20
1836.9175009731
 40
3.25
  0
CIRCLE
  5
6FA
100
AcDbEntity
  8
AXIS
100
AcDbCircle
 62
7
  6
CONTINUOUS
 10
1238.3828619588
 20
1836.9175009731
 40
3.25
  0
CIRCLE
  5
6FB
100
AcDbEntity
  8
AXIS
100
AcDbCircle
 62
7
  6
CONTINUOUS
 10
1228.3828619588
 20
1836.9175009731
 40
3.25
  0
CIRCLE
  5
6FC
100
AcDbEntity
  8
AXIS
100
AcDbCircle
 62
7
  6
CONTINUOUS
 10
1202.3828619588
 20
1836.9175009731
 40
3.25
  0
CIRCLE
  5
6FD
100
AcDbEntity
  8
0
100
AcDbCircle
 62
6
  6
CONTINUOUS
 10
1274.3828619588
 20
1836.9175009731
 40
3.0
  0
CIRCLE
  5
6FE
100
AcDbEntity
  8
0
100
AcDbCircle
 62
6
  6
CONTINUOUS
 10
1274.3828619588
 20
1836.9175009731
 40
2.4540446486
  0
ARC
  5
6FF
100
AcDbEntity
  8
0
100
AcDbCircle
 62
6
  6
CONTINUOUS
 10
1276.8828619588
 20
1836.9175009731
 40
1.0
100
AcDbArc
 50
290.4885535968
 51
69.5113428588
  0
ARC
  5
700
100
AcDbEntity
  8
0
100
AcDbCircle
 62
6
  6
CONTINUOUS
 10
1271.8828619588
 20
1836.9175009731
 40
1.0
100
AcDbArc
 50
110.4885535968
 51
249.5113428588
  0
CIRCLE
  5
701
100
AcDbEntity
  8
0
100
AcDbCircle
 62
7
  6
CONTINUOUS
 10
1365.3828619588
 20
1359.4175009731
 40
51.4999402206
  0
CIRCLE
  5
702
100
AcDbEntity
  8
0
100
AcDbCircle
 62
7
  6
CONTINUOUS
 10
1365.3828619588
 20
1359.4175009731
 40
48.5000597794
  0
CIRCLE
  5
703
100
AcDbEntity
  8
0
100
AcDbCircle
 62
7
  6
CONTINUOUS
 10
1332.8828619588
 20
1856.9175009731
 40
8.0
  0
CIRCLE
  5
704
100
AcDbEntity
  8
0
100
AcDbCircle
 62
7
  6
CONTINUOUS
 10
1332.8828619588
 20
1769.9175009731
 40
8.0
  0
CIRCLE
  5
705
100
AcDbEntity
  8
AXIS
100
AcDbCircle
 62
7
  6
CONTINUOUS
 10
1459.3828619588
 20
1833.4175009731
 40
1.05
  0
CIRCLE
  5
706
100
AcDbEntity
  8
AXIS
100
AcDbCircle
 62
7
  6
CONTINUOUS
 10
1399.3828619588
 20
1833.4175009731
 40
1.05
  0
CIRCLE
  5
707
100
AcDbEntity
  8
AXIS
100
AcDbCircle
 62
7
  6
CONTINUOUS
 10
1399.3828619588
 20
1793.4175009731
 40
1.05
  0
CIRCLE
  5
708
100
AcDbEntity
  8
AXIS
100
AcDbCircle
 62
7
  6
CONTINUOUS
 10
1459.3828619588
 20
1793.4175009731
 40
1.05
  0
CIRCLE
  5
709
100
AcDbEntity
  8
0
100
AcDbCircle
 62
7
  6
CONTINUOUS
 10
1329.3828619588
 20
355.7540695091
 40
15.0
  0
CIRCLE
  5
70A
100
AcDbEntity
  8
0
100
AcDbCircle
 62
7
  6
CONTINUOUS
 10
1299.3828619588
 20
355.7540695091
 40
15.0
  0
ARC
  5
70B
100
AcDbEntity
  8
000-SPOJ_MAT
100
AcDbCircle
 62
7
  6
CONTINUOUS
 10
1296.3828619588
 20
152.7540695091
 40
6.0757359313
100
AcDbArc
 50
41.1917199315
 51
318.8082800685
  0
ARC
  5
70C
100
AcDbEntity
  8
0
100
AcDbCircle
 62
7
  6
CONTINUOUS
 10
1296.3828619588
 20
152.7540695091
 40
4.0
100
AcDbArc
 50
90.0
 51
270.0
  0
ARC
  5
70D
100
AcDbEntity
  8
AXIS
100
AcDbCircle
 62
7
  6
CONTINUOUS
 10
1314.3828619588
 20
163.2540695091
 40
3.05
100
AcDbArc
 50
65.9137569603
 51
189.8019035598
  0
ARC
  5
70E
100
AcDbEntity
  8
0
100
AcDbCircle
 62
7
  6
CONTINUOUS
 10
1314.3828619588
 20
142.2540695091
 40
3.0
100
AcDbArc
 50
180.0
 51
294.263677988
  0
ARC
  5
70F
100
AcDbEntity
  8
0
100
AcDbCircle
 62
7
  6
CONTINUOUS
 10
1314.3828619588
 20
163.2540695091
 40
3.0
100
AcDbArc
 50
65.736322012
 51
180.0
  0
CIRCLE
  5
710
100
AcDbEntity
  8
0
100
AcDbCircle
 62
7
  6
CONTINUOUS
 10
1295.8828619588
 20
650.2540695091
 40
8.0
  0
CIRCLE
  5
711
100
AcDbEntity
  8
0
100
AcDbCircle
 62
7
  6
CONTINUOUS
 10
1295.8828619588
 20
563.2540695091
 40
8.0
  0
ARC
  5
712
100
AcDbEntity
  8
AXIS
100
AcDbCircle
 62
7
  6
CONTINUOUS
 10
1274.3828619588
 20
630.2540695091
 40
3.25
100
AcDbArc
 50
13.3856087959
 51
166.6143954976
  0
ARC
  5
713
100
AcDbEntity
  8
AXIS
100
AcDbCircle
 62
7
  6
CONTINUOUS
 10
1274.3828619588
 20
630.2540695091
 40
3.25
100
AcDbArc
 50
193.3856087959
 51
346.6143954976
  0
CIRCLE
  5
714
100
AcDbEntity
  8
AXIS
100
AcDbCircle
 62
7
  6
CONTINUOUS
 10
1248.3828619588
 20
630.2540695091
 40
3.25
  0
CIRCLE
  5
715
100
AcDbEntity
  8
AXIS
100
AcDbCircle
 62
7
  6
CONTINUOUS
 10
1238.3828619588
 20
630.2540695091
 40
3.25
  0
CIRCLE
  5
716
100
AcDbEntity
  8
AXIS
100
AcDbCircle
 62
7
  6
CONTINUOUS
 10
1228.3828619588
 20
630.2540695091
 40
3.25
  0
CIRCLE
  5
717
100
AcDbEntity
  8
AXIS
100
AcDbCircle
 62
7
  6
CONTINUOUS
 10
1202.3828619588
 20
630.2540695091
 40
3.25
  0
CIRCLE
  5
718
100
AcDbEntity
  8
0
100
AcDbCircle
 62
6
  6
CONTINUOUS
 10
1274.3828619588
 20
630.2540695091
 40
3.0
  0
CIRCLE
  5
719
100
AcDbEntity
  8
0
100
AcDbCircle
 62
6
  6
CONTINUOUS
 10
1274.3828619588
 20
630.2540695091
 40
2.4540446486
  0
ARC
  5
71A
100
AcDbEntity
  8
0
100
AcDbCircle
 62
6
  6
CONTINUOUS
 10
1276.8828619588
 20
630.2540695091
 40
1.0
100
AcDbArc
 50
290.4885535968
 51
69.5113428588
  0
ARC
  5
71B
100
AcDbEntity
  8
0
100
AcDbCircle
 62
6
  6
CONTINUOUS
 10
1271.8828619588
 20
630.2540695091
 40
1.0
100
AcDbArc
 50
110.4885535968
 51
249.5113428588
  0
CIRCLE
  5
71C
100
AcDbEntity
  8
0
100
AcDbCircle
 62
7
  6
CONTINUOUS
 10
1365.3828619588
 20
152.7540695091
 40
51.4999402206
  0
CIRCLE
  5
71D
100
AcDbEntity
  8
0
100
AcDbCircle
 62
7
  6
CONTINUOUS
 10
1365.3828619588
 20
152.7540695091
 40
48.5000597794
  0
CIRCLE
  5
71E
100
AcDbEntity
  8
0
100
AcDbCircle
 62
7
  6
CONTINUOUS
 10
1332.8828619588
 20
650.2540695091
 40
8.0
  0
CIRCLE
  5
71F
100
AcDbEntity
  8
0
100
AcDbCircle
 62
7
  6
CONTINUOUS
 10
1332.8828619588
 20
563.2540695091
 40
8.0
  0
CIRCLE
  5
720
100
AcDbEntity
  8
AXIS
100
AcDbCircle
 62
7
  6
CONTINUOUS
 10
1459.3828619588
 20
626.7540695091
 40
1.05
  0
CIRCLE
  5
721
100
AcDbEntity
  8
AXIS
100
AcDbCircle
 62
7
  6
CONTINUOUS
 10
1399.3828619588
 20
626.7540695091
 40
1.05
  0
CIRCLE
  5
722
100
AcDbEntity
  8
AXIS
100
AcDbCircle
 62
7
  6
CONTINUOUS
 10
1399.3828619588
 20
586.7540695091
 40
1.05
  0
CIRCLE
  5
723
100
AcDbEntity
  8
AXIS
100
AcDbCircle
 62
7
  6
CONTINUOUS
 10
1459.3828619588
 20
586.7540695091
 40
1.05
  0
ARC
  5
724
100
AcDbEntity
  8
AXIS
100
AcDbCircle
 62
7
  6
CONTINUOUS
 10
236.7163305497
 20
1029.4680556763
 40
30.0
100
AcDbArc
 50
180.0
 51
360.0
  0
CIRCLE
  5
725
100
AcDbEntity
  8
AXIS
100
AcDbCircle
 62
7
  6
CONTINUOUS
 10
166.7163305497
 20
1152.9680556763
 40
10.0
  0
CIRCLE
  5
726
100
AcDbEntity
  8
AXIS
100
AcDbCircle
 62
7
  6
CONTINUOUS
 10
236.7163305497
 20
1152.9680556763
 40
10.0
  0
CIRCLE
  5
727
100
AcDbEntity
  8
AXIS
100
AcDbCircle
 62
7
  6
CONTINUOUS
 10
306.7163305497
 20
1152.9680556763
 40
10.0
  0
CIRCLE
  5
728
100
AcDbEntity
  8
AXIS
100
AcDbCircle
 62
7
  6
CONTINUOUS
 10
376.7163305497
 20
1152.9680556763
 40
10.0
  0
CIRCLE
  5
729
100
AcDbEntity
  8
AXIS
100
AcDbCircle
 62
7
  6
CONTINUOUS
 10
446.7163305497
 20
1152.9680556763
 40
10.0
  0
CIRCLE
  5
72A
100
AcDbEntity
  8
AXIS
100
AcDbCircle
 62
7
  6
CONTINUOUS
 10
236.7163305497
 20
1019.4680556763
 40
6.5
  0
ARC
  5
72B
100
AcDbEntity
  8
0
100
AcDbCircle
 62
2
  6
CONTINUOUS
 10
201.7163305497
 20
1152.9680556763
 40
2.0
100
AcDbArc
 50
255.0
 51
195.0
  0
ARC
  5
72C
100
AcDbEntity
  8
ROUND
100
AcDbCircle
 62
7
  6
CONTINUOUS
 10
216.6759141789
 20
1119.5680656763
 40
1.99999
100
AcDbArc
 50
90.0
 51
168.4632748773
  0
ARC
  5
72D
100
AcDbEntity
  8
ROUND
100
AcDbCircle
 62
7
  6
CONTINUOUS
 10
216.7567469205
 20
1119.5680656763
 40
1.99999
100
AcDbArc
 50
11.5367251227
 51
90.0
  0
ARC
  5
72E
100
AcDbEntity
  8
ROUND
100
AcDbCircle
 62
7
  6
CONTINUOUS
 10
256.6759141789
 20
1119.5680656763
 40
1.99999
100
AcDbArc
 50
90.0
 51
168.4632748773
  0
ARC
  5
72F
100
AcDbEntity
  8
ROUND
100
AcDbCircle
 62
7
  6
CONTINUOUS
 10
256.7567469205
 20
1119.5680656763
 40
1.99999
100
AcDbArc
 50
11.5367251227
 51
90.0
  0
CIRCLE
  5
730
100
AcDbEntity
  8
AXIS
100
AcDbCircle
 62
7
  6
CONTINUOUS
 10
201.7163305497
 20
1152.9680556763
 40
1.65
  0
ARC
  5
731
100
AcDbEntity
  8
000-SPOJ_MAT
100
AcDbCircle
 62
7
  6
CONTINUOUS
 10
287.4213558029
 20
1135.6680556763
 40
0.8
100
AcDbArc
 50
0.0
 51
90.0
  0
ARC
  5
732
100
AcDbEntity
  8
000-SPOJ_MAT
100
AcDbCircle
 62
7
  6
CONTINUOUS
 10
273.0113052965
 20
1135.6680556763
 40
0.8
100
AcDbArc
 50
90.0
 51
180.0
  0
ARC
  5
733
100
AcDbEntity
  8
000-SPOJ_MAT
100
AcDbCircle
 62
7
  6
CONTINUOUS
 10
200.4213558029
 20
1135.6680556763
 40
0.8
100
AcDbArc
 50
0.0
 51
90.0
  0
ARC
  5
734
100
AcDbEntity
  8
000-SPOJ_MAT
100
AcDbCircle
 62
7
  6
CONTINUOUS
 10
186.0113052965
 20
1135.6680556763
 40
0.8
100
AcDbArc
 50
90.0
 51
180.0
  0
ARC
  5
735
100
AcDbEntity
  8
0
100
AcDbCircle
 62
7
  6
CONTINUOUS
 10
740.7163305497
 20
830.4680556763
 40
1.4999402206
100
AcDbArc
 50
270.0
 51
90.0
  0
ARC
  5
736
100
AcDbEntity
  8
0
100
AcDbCircle
 62
7
  6
CONTINUOUS
 10
640.7163305497
 20
830.4680556763
 40
1.4999402206
100
AcDbArc
 50
90.0
 51
270.0
  0
ARC
  5
737
100
AcDbEntity
  8
ROUND
100
AcDbCircle
 62
7
  6
CONTINUOUS
 10
739.7163305497
 20
929.4680556763
 40
1.0
100
AcDbArc
 50
0.0
 51
89.9999999994
  0
ARC
  5
738
100
AcDbEntity
  8
ROUND
100
AcDbCircle
 62
7
  6
CONTINUOUS
 10
641.7163305497
 20
929.4680556763
 40
1.0
100
AcDbArc
 50
90.0
 51
180.0
  0
ARC
  5
739
100
AcDbEntity
  8
0
100
AcDbCircle
 62
7
  6
CONTINUOUS
 10
690.7163305497
 20
1061.9680556763
 40
13.5
100
AcDbArc
 50
0.0
 51
72.7477910752
  0
ARC
  5
73A
100
AcDbEntity
  8
0
100
AcDbCircle
 62
7
  6
CONTINUOUS
 10
690.7163305497
 20
1061.9680556763
 40
13.5
100
AcDbArc
 50
107.2522089248
 51
180.0
  0
CIRCLE
  5
73B
100
AcDbEntity
  8
AXIS
100
AcDbCircle
 62
7
  6
CONTINUOUS
 10
516.7163305497
 20
1152.9680556763
 40
10.0
  0
CIRCLE
  5
73C
100
AcDbEntity
  8
AXIS
100
AcDbCircle
 62
7
  6
CONTINUOUS
 10
586.7163305497
 20
1152.9680556763
 40
10.0
  0
CIRCLE
  5
73D
100
AcDbEntity
  8
AXIS
100
AcDbCircle
 62
7
  6
CONTINUOUS
 10
656.7163305497
 20
1152.9680556763
 40
10.0
  0
ARC
  5
73E
100
AcDbEntity
  8
0
100
AcDbCircle
 62
7
  6
CONTINUOUS
 10
690.7163305497
 20
1061.9680556763
 40
7.5
100
AcDbArc
 50
0.0
 51
57.7593722656
  0
ARC
  5
73F
100
AcDbEntity
  8
0
100
AcDbCircle
 62
7
  6
CONTINUOUS
 10
690.7163305497
 20
1061.9680556763
 40
7.5
100
AcDbArc
 50
122.2406277344
 51
180.0
  0
ARC
  5
740
100
AcDbEntity
  8
ROUND
100
AcDbCircle
 62
7
  6
CONTINUOUS
 10
695.7163305497
 20
1033.8892544705
 40
7.5
100
AcDbArc
 50
35.9580078578
 51
90.0
  0
ARC
  5
741
100
AcDbEntity
  8
ROUND
100
AcDbCircle
 62
7
  6
CONTINUOUS
 10
685.7163305497
 20
1033.8892544705
 40
7.5
100
AcDbArc
 50
90.0
 51
144.0419921422
  0
ARC
  5
742
100
AcDbEntity
  8
0
100
AcDbCircle
 62
7
  6
CONTINUOUS
 10
690.7163305497
 20
1065.4680556763
 40
4.0
100
AcDbArc
 50
180.0
 51
360.0
  0
ARC
  5
743
100
AcDbEntity
  8
0
100
AcDbCircle
 62
7
  6
CONTINUOUS
 10
715.3218836536
 20
1036.2913675031
 40
2.0
100
AcDbArc
 50
72.0
 51
90.0
  0
ARC
  5
744
100
AcDbEntity
  8
0
100
AcDbCircle
 62
7
  6
CONTINUOUS
 10
666.1107774458
 20
1036.2913675031
 40
2.0
100
AcDbArc
 50
90.0
 51
108.0
  0
ARC
  5
745
100
AcDbEntity
  8
ROUND
100
AcDbCircle
 62
7
  6
CONTINUOUS
 10
695.4163305497
 20
1046.3900341921
 40
1.8
100
AcDbArc
 50
0.0
 51
90.0
  0
ARC
  5
746
100
AcDbEntity
  8
ROUND
100
AcDbCircle
 62
7
  6
CONTINUOUS
 10
686.0163305497
 20
1046.3900341921
 40
1.8
100
AcDbArc
 50
90.0
 51
180.0
  0
ARC
  5
747
100
AcDbEntity
  8
0
100
AcDbCircle
 62
7
  6
CONTINUOUS
 10
739.7163305497
 20
1030.4680556763
 40
1.5
100
AcDbArc
 50
270.0
 51
90.0
  0
ARC
  5
748
100
AcDbEntity
  8
0
100
AcDbCircle
 62
7
  6
CONTINUOUS
 10
641.7163305497
 20
1030.4680556763
 40
1.5
100
AcDbArc
 50
90.0
 51
270.0
  0
ARC
  5
749
100
AcDbEntity
  8
0
100
AcDbCircle
 62
7
  6
CONTINUOUS
 10
1850.4914461076
 20
830.4680556763
 40
1.4999402206
100
AcDbArc
 50
90.0
 51
270.0
  0
ARC
  5
74A
100
AcDbEntity
  8
0
100
AcDbCircle
 62
7
  6
CONTINUOUS
 10
1950.4914461076
 20
830.4680556763
 40
1.4999402206
100
AcDbArc
 50
270.0
 51
90.0
  0
ARC
  5
74B
100
AcDbEntity
  8
ROUND
100
AcDbCircle
 62
7
  6
CONTINUOUS
 10
1851.4914461076
 20
929.4680556763
 40
1.0
100
AcDbArc
 50
90.0000000006
 51
180.0
  0
ARC
  5
74C
100
AcDbEntity
  8
ROUND
100
AcDbCircle
 62
7
  6
CONTINUOUS
 10
1949.4914461076
 20
929.4680556763
 40
1.0
100
AcDbArc
 50
0.0
 51
90.0
  0
ARC
  5
74D
100
AcDbEntity
  8
0
100
AcDbCircle
 62
7
  6
CONTINUOUS
 10
1900.4914461076
 20
1030.9680556763
 40
13.5
100
AcDbArc
 50
303.7753633032
 51
360.0
  0
ARC
  5
74E
100
AcDbEntity
  8
0
100
AcDbCircle
 62
7
  6
CONTINUOUS
 10
1900.4914461076
 20
1030.9680556763
 40
13.5
100
AcDbArc
 50
180.0
 51
236.2246366968
  0
ARC
  5
74F
100
AcDbEntity
  8
0
100
AcDbCircle
 62
7
  6
CONTINUOUS
 10
1900.4914461076
 20
1061.9680556763
 40
13.5
100
AcDbArc
 50
107.2522089248
 51
180.0
  0
ARC
  5
750
100
AcDbEntity
  8
0
100
AcDbCircle
 62
7
  6
CONTINUOUS
 10
1900.4914461076
 20
1061.9680556763
 40
13.5
100
AcDbArc
 50
0.0
 51
72.7477910752
  0
CIRCLE
  5
751
100
AcDbEntity
  8
AXIS
100
AcDbCircle
 62
7
  6
CONTINUOUS
 10
1934.4914461076
 20
1152.9680556763
 40
10.0
  0
CIRCLE
  5
752
100
AcDbEntity
  8
AXIS
100
AcDbCircle
 62
7
  6
CONTINUOUS
 10
2004.4914461076
 20
1152.9680556763
 40
10.0
  0
CIRCLE
  5
753
100
AcDbEntity
  8
AXIS
100
AcDbCircle
 62
7
  6
CONTINUOUS
 10
2074.4914461076
 20
1152.9680556763
 40
10.0
  0
ARC
  5
754
100
AcDbEntity
  8
0
100
AcDbCircle
 62
7
  6
CONTINUOUS
 10
1900.4914461076
 20
1030.9680556763
 40
7.5
100
AcDbArc
 50
359.5505969773
 51
360.0
  0
ARC
  5
755
100
AcDbEntity
  8
0
100
AcDbCircle
 62
7
  6
CONTINUOUS
 10
1900.4914461076
 20
1030.9680556763
 40
7.5
100
AcDbArc
 50
180.0
 51
180.4494030227
  0
ARC
  5
756
100
AcDbEntity
  8
0
100
AcDbCircle
 62
7
  6
CONTINUOUS
 10
1900.4914461076
 20
1061.9680556763
 40
7.5
100
AcDbArc
 50
122.2406277344
 51
180.0
  0
ARC
  5
757
100
AcDbEntity
  8
0
100
AcDbCircle
 62
7
  6
CONTINUOUS
 10
1900.4914461076
 20
1061.9680556763
 40
7.5
100
AcDbArc
 50
0.0
 51
57.7593722656
  0
ARC
  5
758
100
AcDbEntity
  8
ROUND
100
AcDbCircle
 62
7
  6
CONTINUOUS
 10
1895.4914461076
 20
1033.8892544705
 40
7.5
100
AcDbArc
 50
90.0
 51
109.4802616126
  0
ARC
  5
759
100
AcDbEntity
  8
ROUND
100
AcDbCircle
 62
7
  6
CONTINUOUS
 10
1905.4914461076
 20
1033.8892544705
 40
7.5
100
AcDbArc
 50
86.1770339876
 51
90.0
  0
ARC
  5
75A
100
AcDbEntity
  8
0
100
AcDbCircle
 62
7
  6
CONTINUOUS
 10
1900.4914461076
 20
1065.4680556763
 40
4.0
100
AcDbArc
 50
180.0
 51
360.0
  0
ARC
  5
75B
100
AcDbEntity
  8
0
100
AcDbCircle
 62
7
  6
CONTINUOUS
 10
1875.8858930037
 20
1036.2913675031
 40
2.0
100
AcDbArc
 50
90.0
 51
108.0
  0
ARC
  5
75C
100
AcDbEntity
  8
0
100
AcDbCircle
 62
7
  6
CONTINUOUS
 10
1925.0969992114
 20
1036.2913675031
 40
2.0
100
AcDbArc
 50
72.0
 51
90.0
  0
ARC
  5
75D
100
AcDbEntity
  8
ROUND
100
AcDbCircle
 62
7
  6
CONTINUOUS
 10
1895.7914461076
 20
1046.3900341921
 40
1.8
100
AcDbArc
 50
90.0
 51
180.0
  0
ARC
  5
75E
100
AcDbEntity
  8
ROUND
100
AcDbCircle
 62
7
  6
CONTINUOUS
 10
1905.1914461076
 20
1046.3900341921
 40
1.8
100
AcDbArc
 50
63.583969636
 51
90.0
  0
ARC
  5
75F
100
AcDbEntity
  8
0
100
AcDbCircle
 62
7
  6
CONTINUOUS
 10
1949.4914461076
 20
1030.4680556763
 40
1.5
100
AcDbArc
 50
270.0
 51
90.0
  0
ARC
  5
760
100
AcDbEntity
  8
0
100
AcDbCircle
 62
7
  6
CONTINUOUS
 10
1851.4914461076
 20
1030.4680556763
 40
1.5
100
AcDbArc
 50
90.0
 51
270.0
  0
ARC
  5
761
100
AcDbEntity
  8
AXIS
100
AcDbCircle
 62
7
  6
CONTINUOUS
 10
2354.4914461076
 20
1029.4680556763
 40
30.0
100
AcDbArc
 50
180.0
 51
360.0
  0
CIRCLE
  5
762
100
AcDbEntity
  8
AXIS
100
AcDbCircle
 62
7
  6
CONTINUOUS
 10
2144.4914461076
 20
1152.9680556763
 40
10.0
  0
CIRCLE
  5
763
100
AcDbEntity
  8
AXIS
100
AcDbCircle
 62
7
  6
CONTINUOUS
 10
2214.4914461076
 20
1152.9680556763
 40
10.0
  0
CIRCLE
  5
764
100
AcDbEntity
  8
AXIS
100
AcDbCircle
 62
7
  6
CONTINUOUS
 10
2284.4914461076
 20
1152.9680556763
 40
10.0
  0
CIRCLE
  5
765
100
AcDbEntity
  8
AXIS
100
AcDbCircle
 62
7
  6
CONTINUOUS
 10
2354.4914461076
 20
1152.9680556763
 40
10.0
  0
CIRCLE
  5
766
100
AcDbEntity
  8
AXIS
100
AcDbCircle
 62
7
  6
CONTINUOUS
 10
2424.4914461076
 20
1152.9680556763
 40
10.0
  0
CIRCLE
  5
767
100
AcDbEntity
  8
AXIS
100
AcDbCircle
 62
7
  6
CONTINUOUS
 10
2354.4914461076
 20
1019.4680556763
 40
6.5
  0
ARC
  5
768
100
AcDbEntity
  8
0
100
AcDbCircle
 62
7
  6
CONTINUOUS
 10
2389.4914461076
 20
1152.9680556763
 40
6.25
100
AcDbArc
 50
180.0
 51
360.0
  0
ARC
  5
769
100
AcDbEntity
  8
0
100
AcDbCircle
 62
7
  6
CONTINUOUS
 10
2372.9914461076
 20
1136.4680556763
 40
5.75
100
AcDbArc
 50
257.6804638663
 51
335.1564383701
  0
ARC
  5
76A
100
AcDbEntity
  8
0
100
AcDbCircle
 62
7
  6
CONTINUOUS
 10
2372.9914461076
 20
1136.4680556763
 40
5.75
100
AcDbArc
 50
2.0519832673
 51
88.6769313159
  0
ARC
  5
76B
100
AcDbEntity
  8
0
100
AcDbCircle
 62
7
  6
CONTINUOUS
 10
2372.9914461076
 20
1136.4680556763
 40
4.25
100
AcDbArc
 50
257.6804638663
 51
325.5631853973
  0
ARC
  5
76C
100
AcDbEntity
  8
0
100
AcDbCircle
 62
7
  6
CONTINUOUS
 10
2372.9914461076
 20
1136.4680556763
 40
4.25
100
AcDbArc
 50
3.3503914667
 51
87.7024595432
  0
CIRCLE
  5
76D
100
AcDbEntity
  8
0
100
AcDbCircle
 62
7
  6
CONTINUOUS
 10
2389.4914461076
 20
1152.9680556763
 40
3.8
  0
ARC
  5
76E
100
AcDbEntity
  8
0
100
AcDbCircle
 62
6
  6
CONTINUOUS
 10
2370.1664461076
 20
1131.8930556763
 40
2.175
100
AcDbArc
 50
10.7414997023
 51
90.0
  0
ARC
  5
76F
100
AcDbEntity
  8
0
100
AcDbCircle
 62
6
  6
CONTINUOUS
 10
2385.8164461076
 20
1131.8930556763
 40
2.175
100
AcDbArc
 50
90.0
 51
180.0
  0
CIRCLE
  5
770
100
AcDbEntity
  8
AXIS
100
AcDbCircle
 62
7
  6
CONTINUOUS
 10
2374.4914461076
 20
1089.4680556763
 40
1.5
  0
ARC
  5
771
100
AcDbEntity
  8
000-SPOJ_MAT
100
AcDbCircle
 62
7
  6
CONTINUOUS
 10
2390.7864208544
 20
1135.6680556763
 40
0.8
100
AcDbArc
 50
90.0
 51
180.0
  0
ARC
  5
772
100
AcDbEntity
  8
000-SPOJ_MAT
100
AcDbCircle
 62
7
  6
CONTINUOUS
 10
2405.1964713607
 20
1135.6680556763
 40
0.8
100
AcDbArc
 50
0.0
 51
90.0
  0
ARC
  5
773
100
AcDbEntity
  8
000-SPOJ_MAT
100
AcDbCircle
 62
7
  6
CONTINUOUS
 10
2303.7864208544
 20
1135.6680556763
 40
0.8
100
AcDbArc
 50
90.0
 51
180.0
  0
ARC
  5
774
100
AcDbEntity
  8
000-SPOJ_MAT
100
AcDbCircle
 62
7
  6
CONTINUOUS
 10
2318.1964713607
 20
1135.6680556763
 40
0.8
100
AcDbArc
 50
0.0
 51
90.0
  0
ARC
  5
775
100
AcDbEntity
  8
0
100
AcDbCircle
 62
7
  6
CONTINUOUS
 10
2389.4914461076
 20
1169.2257923725
 40
0.75
100
AcDbArc
 50
270.0
 51
90.0
  0
ARC
  5
776
100
AcDbEntity
  8
ROUND
100
AcDbCircle
 62
7
  6
CONTINUOUS
 10
2873.358828586
 20
929.4680556763
 40
1.0
100
AcDbArc
 50
90.0
 51
180.0
  0
ARC
  5
777
100
AcDbEntity
  8
ROUND
100
AcDbCircle
 62
7
  6
CONTINUOUS
 10
2907.858828586
 20
1037.3892544705
 40
4.0
100
AcDbArc
 50
90.0
 51
166.9581372331
  0
ARC
  5
778
100
AcDbEntity
  8
ROUND
100
AcDbCircle
 62
7
  6
CONTINUOUS
 10
2908.858828586
 20
1037.3892544705
 40
4.0
100
AcDbArc
 50
13.0418627669
 51
90.0
  0
ARC
  5
779
100
AcDbEntity
  8
0
100
AcDbCircle
 62
7
  6
CONTINUOUS
 10
2897.7532754821
 20
1036.2913675031
 40
2.0
100
AcDbArc
 50
90.0
 51
108.0
  0
ARC
  5
77A
100
AcDbEntity
  8
ROUND
100
AcDbCircle
 62
7
  6
CONTINUOUS
 10
2888.3992449567
 20
1119.5680656763
 40
1.99999
100
AcDbArc
 50
11.5367251227
 51
90.0
  0
ARC
  5
77B
100
AcDbEntity
  8
ROUND
100
AcDbCircle
 62
7
  6
CONTINUOUS
 10
2888.3184122152
 20
1119.5680656763
 40
1.99999
100
AcDbArc
 50
90.0
 51
168.4632748773
  0
ARC
  5
77C
100
AcDbEntity
  8
ROUND
100
AcDbCircle
 62
7
  6
CONTINUOUS
 10
2828.3992449567
 20
1119.5680656763
 40
1.99999
100
AcDbArc
 50
11.5367251227
 51
90.0
  0
ARC
  5
77D
100
AcDbEntity
  8
ROUND
100
AcDbCircle
 62
7
  6
CONTINUOUS
 10
2828.3184122152
 20
1119.5680656763
 40
1.99999
100
AcDbArc
 50
90.0
 51
168.4632748773
  0
ARC
  5
77E
100
AcDbEntity
  8
ROUND
100
AcDbCircle
 62
7
  6
CONTINUOUS
 10
2908.158828586
 20
1046.3900341921
 40
1.8
100
AcDbArc
 50
90.0
 51
180.0
  0
ARC
  5
77F
100
AcDbEntity
  8
ROUND
100
AcDbCircle
 62
7
  6
CONTINUOUS
 10
2908.558828586
 20
1046.3900341921
 40
1.8
100
AcDbArc
 50
0.0
 51
90.0
  0
ARC
  5
780
100
AcDbEntity
  8
0
100
AcDbCircle
 62
7
  6
CONTINUOUS
 10
2873.358828586
 20
1030.4680556763
 40
1.5
100
AcDbArc
 50
90.0
 51
270.0
  0
ARC
  5
781
100
AcDbEntity
  8
ROUND
100
AcDbCircle
 62
7
  6
CONTINUOUS
 10
2971.358828586
 20
934.4680556763
 40
4.5
100
AcDbArc
 50
273.7349513374
 51
359.9271374579
  0
ARC
  5
782
100
AcDbEntity
  8
0
100
AcDbCircle
 62
7
  6
CONTINUOUS
 10
2971.358828586
 20
934.4680556763
 40
3.5
100
AcDbArc
 50
260.5047353724
 51
0.0879655002
  0
ARC
  5
783
100
AcDbEntity
  8
0
100
AcDbCircle
 62
7
  6
CONTINUOUS
 10
2972.358828586
 20
830.4680556763
 40
1.4999402206
100
AcDbArc
 50
270.0
 51
90.0
  0
ARC
  5
784
100
AcDbEntity
  8
ROUND
100
AcDbCircle
 62
7
  6
CONTINUOUS
 10
2971.3588285859
 20
929.4680556763
 40
1.0
100
AcDbArc
 50
0.0
 51
35.0996321952
  0
ARC
  5
785
100
AcDbEntity
  8
0
100
AcDbCircle
 62
7
  6
CONTINUOUS
 10
2973.358828586
 20
1083.4680556763
 40
22.0
100
AcDbArc
 50
180.0
 51
262.1547165009
  0
ARC
  5
786
100
AcDbEntity
  8
0
100
AcDbCircle
 62
7
  6
CONTINUOUS
 10
2973.358828586
 20
1083.4680556763
 40
22.0
100
AcDbArc
 50
277.8452834991
 51
360.0
  0
ARC
  5
787
100
AcDbEntity
  8
0
100
AcDbCircle
 62
7
  6
CONTINUOUS
 10
2973.358828586
 20
1083.4680556763
 40
14.0
100
AcDbArc
 50
180.0
 51
257.5864428226
  0
ARC
  5
788
100
AcDbEntity
  8
0
100
AcDbCircle
 62
7
  6
CONTINUOUS
 10
2973.358828586
 20
1083.4680556763
 40
14.0
100
AcDbArc
 50
282.4135571774
 51
360.0
  0
ARC
  5
789
100
AcDbEntity
  8
0
100
AcDbCircle
 62
7
  6
CONTINUOUS
 10
2971.358828586
 20
1024.4680556763
 40
6.5
100
AcDbArc
 50
358.7260260231
 51
39.6862300003
  0
ARC
  5
78A
100
AcDbEntity
  8
0
100
AcDbCircle
 62
7
  6
CONTINUOUS
 10
2971.358828586
 20
1024.4680556763
 40
5.5
100
AcDbArc
 50
358.7260260231
 51
24.6035364675
  0
ARC
  5
78B
100
AcDbEntity
  8
0
100
AcDbCircle
 62
7
  6
CONTINUOUS
 10
2975.246328586
 20
1152.9680556763
 40
5.3125
100
AcDbArc
 50
314.3326916442
 51
344.2348908378
  0
ARC
  5
78C
100
AcDbEntity
  8
0
100
AcDbCircle
 62
7
  6
CONTINUOUS
 10
2975.246328586
 20
1152.9680556763
 40
5.3125
100
AcDbArc
 50
15.7651091622
 51
45.6673083558
  0
ARC
  5
78D
100
AcDbEntity
  8
0
100
AcDbCircle
 62
7
  6
CONTINUOUS
 10
2975.246328586
 20
1152.9680556763
 40
5.1633473881
100
AcDbArc
 50
351.9653867462
 51
8.0346132538
  0
ARC
  5
78E
100
AcDbEntity
  8
ROUND
100
AcDbCircle
 62
7
  6
CONTINUOUS
 10
2981.858828586
 20
1160.3097931884
 40
5.0
100
AcDbArc
 50
165.0
 51
180.0
  0
ARC
  5
78F
100
AcDbEntity
  8
0
100
AcDbCircle
 62
7
  6
CONTINUOUS
 10
2973.358828586
 20
1072.4680556763
 40
3.0
100
AcDbArc
 50
0.0
 51
180.0
  0
ARC
  5
790
100
AcDbEntity
  8
0
100
AcDbCircle
 62
7
  6
CONTINUOUS
 10
2973.358828586
 20
1020.4680556763
 40
3.0
100
AcDbArc
 50
228.1304743331
 51
360.0
  0
ARC
  5
791
100
AcDbEntity
  8
0
100
AcDbCircle
 62
6
  6
CONTINUOUS
 10
3005.533828586
 20
1131.8930556763
 40
2.175
100
AcDbArc
 50
0.0
 51
90.0
  0
ARC
  5
792
100
AcDbEntity
  8
0
100
AcDbCircle
 62
6
  6
CONTINUOUS
 10
3021.183828586
 20
1131.8930556763
 40
2.175
100
AcDbArc
 50
127.5313480242
 51
180.0
  0
ARC
  5
793
100
AcDbEntity
  8
0
100
AcDbCircle
 62
7
  6
CONTINUOUS
 10
3020.858828586
 20
1136.4680556763
 40
2.1
100
AcDbArc
 50
186.3041901708
 51
93.9449221397
  0
ARC
  5
794
100
AcDbEntity
  8
0
100
AcDbCircle
 62
7
  6
CONTINUOUS
 10
2981.8479396003
 20
1169.2257923725
 40
2.1
100
AcDbArc
 50
5.6985742913
 51
274.1017738325
  0
ARC
  5
795
100
AcDbEntity
  8
0
100
AcDbCircle
 62
7
  6
CONTINUOUS
 10
2946.9643816898
 20
1036.2913675031
 40
2.0
100
AcDbArc
 50
72.0
 51
90.0
  0
ARC
  5
796
100
AcDbEntity
  8
000-SPOJ_MAT
100
AcDbCircle
 62
7
  6
CONTINUOUS
 10
2947.6538033328
 20
1135.6680556763
 40
0.8
100
AcDbArc
 50
90.0
 51
180.0
  0
ARC
  5
797
100
AcDbEntity
  8
000-SPOJ_MAT
100
AcDbCircle
 62
7
  6
CONTINUOUS
 10
2962.0638538391
 20
1135.6680556763
 40
0.8
100
AcDbArc
 50
0.0
 51
90.0
  0
ARC
  5
798
100
AcDbEntity
  8
000-SPOJ_MAT
100
AcDbCircle
 62
7
  6
CONTINUOUS
 10
2984.6538033328
 20
1135.6680556763
 40
0.8
100
AcDbArc
 50
90.0
 51
180.0
  0
ARC
  5
799
100
AcDbEntity
  8
000-SPOJ_MAT
100
AcDbCircle
 62
7
  6
CONTINUOUS
 10
2999.0638538391
 20
1135.6680556763
 40
0.8
100
AcDbArc
 50
0.0
 51
90.0
  0
ARC
  5
79A
100
AcDbEntity
  8
0
100
AcDbCircle
 62
7
  6
CONTINUOUS
 10
3020.858828586
 20
1131.4680556763
 40
0.75
100
AcDbArc
 50
180.0
 51
360.0
  0
ARC
  5
79B
100
AcDbEntity
  8
0
100
AcDbCircle
 62
7
  6
CONTINUOUS
 10
3020.858828586
 20
1141.4680556763
 40
0.75
100
AcDbArc
 50
0.0
 51
180.0
  0
ARC
  5
79C
100
AcDbEntity
  8
0
100
AcDbCircle
 62
7
  6
CONTINUOUS
 10
2986.8479396003
 20
1169.2257923725
 40
0.75
100
AcDbArc
 50
270.0
 51
90.0
  0
ENDSEC
  0
SECTION
  2
OBJECTS
  0
DICTIONARY
  5
C
100
AcDbDictionary
280
0
281
1
  3
ACAD_GROUP
350
D
  3
ACAD_MLINESTYLE
350
17
  3
ACAD_LAYOUT
350
1A
  3
ACAD_PLOTSETTINGS
350
19
  3
ACAD_PLOTSTYLENAME
350
E
  0
DICTIONARY
  5
D
102
{ACAD_REACTORS
330
C
102
}
100
AcDbDictionary
280
0
281
1
  0
ACDBDICTIONARYWDFLT
  5
E
102
{ACAD_REACTORS
330
C
102
}
100
AcDbDictionary
281
1
  3
Normal
350
F
100
AcDbDictionaryWithDefault
340
F
  0
DICTIONARY
  5
17
102
{ACAD_REACTORS
330
C
102
}
100
AcDbDictionary
280
0
281
1
  3
Standard
350
18
  0
DICTIONARY
  5
19
102
{ACAD_REACTORS
330
C
102
}
100
AcDbDictionary
281
1
  0
DICTIONARY
  5
1A
102
{ACAD_REACTORS
330
C
102
}
100
AcDbDictionary
281
1
  3
Model
350
79D
  3
Layout1
350
79E
  0
ACDBPLACEHOLDER
  5
F
102
{ACAD_REACTORS
330
E
102
}
  0
MLINESTYLE
  5
18
102
{ACAD_REACTORS
330
17
102
}
100
AcDbMlineStyle
  2
STANDARD
 70
0
  3

 62
256
 51
90.0
 52
90.0
 71
2
 49
0.5
 62
256
  6
BYLAYER
 49
-0.5
 62
256
  6
BYLAYER
  0
LAYOUT
  5
79D
102
{ACAD_REACTORS
330
1A
102
}
100
AcDbPlotSettings
  1

  2
none_device
  4

  6

 40
0.0
 41
0.0
 42
0.0
 43
0.0
 44
3500.0
 45
2000.0
 46
0.0
 47
0.0
 48
0.0
 49
0.0
140
0.0
141
0.0
142
1.0
143
1.0
 70
1024
 72
1
 73
0
 74
0
  7

 75
0
147
1.0
148
0.0
149
0.0
100
AcDbLayout
  1
Model
 70
0
 71
0
 10
0.0
 20
0.0
 11
3500.0
 21
2000.0
 12
0.0
 22
0.0
 32
0.0
 14
0.0
 24
0.0
 34
0.0
 15
0.0
 25
0.0
 35
0.0
146
0.0
 13
0.0
 23
0.0
 33
0.0
 16
1.0
 26
0.0
 36
0.0
 17
0.0
 27
1.0
 37
0.0
 76
0
330
217
345
0
346
0
  0
LAYOUT
  5
79E
102
{ACAD_REACTORS
330
1A
102
}
100
AcDbPlotSettings
  1

  2
none_device
  4

  6

 40
0.0
 41
0.0
 42
0.0
 43
0.0
 44
3500.0
 45
2000.0
 46
0.0
 47
0.0
 48
0.0
 49
0.0
140
0.0
141
0.0
142
1.0
143
1.0
 70
0
 72
1
 73
0
 74
0
  7

 75
0
147
1.0
148
0.0
149
0.0
100
AcDbLayout
  1
Layout1
 70
0
 71
1
 10
0.0
 20
0.0
 11
3500.0
 21
2000.0
 12
0.0
 22
0.0
 32
0.0
 14
0.0
 24
0.0
 34
0.0
 15
0.0
 25
0.0
 35
0.0
146
0.0
 13
0.0
 23
0.0
 33
0.0
 16
1.0
 26
0.0
 36
0.0
 17
0.0
 27
1.0
 37
0.0
 76
0
330
218
345
0
346
0
  0
ENDSEC
  0
EOF
